  0
SECTION
  2
HEADER
  9
$ACADVER
  1
AC1009
  9
$DWGCODEPAGE
  3
ansi_1252
  9
$INSBASE
 10
0.0
 20
0.0
 30
0.0
  9
$EXTMIN
 10
-69.29999977350235
 20
-66.06678221997659
 30
0.0
  9
$EXTMAX
 10
71.48813934960845
 20
71.60850998115309
 30
0.0
  9
$LIMMIN
 10
0.0
 20
0.0
  9
$LIMMAX
 10
12.0
 20
9.0
  9
$ORTHOMODE
 70
     0
  9
$REGENMODE
 70
     1
  9
$FILLMODE
 70
     1
  9
$QTEXTMODE
 70
     0
  9
$MIRRTEXT
 70
     1
  9
$DRAGMODE
 70
     2
  9
$LTSCALE
 40
1.0
  9
$OSMODE
 70
    37
  9
$ATTMODE
 70
     1
  9
$TEXTSIZE
 40
0.2
  9
$TRACEWID
 40
0.05
  9
$TEXTSTYLE
  7
STANDARD
  9
$CLAYER
  8
0
  9
$CELTYPE
  6
BYLAYER
  9
$CECOLOR
 62
   256
  9
$DIMSCALE
 40
1.0
  9
$DIMASZ
 40
0.18
  9
$DIMEXO
 40
0.0625
  9
$DIMDLI
 40
0.38
  9
$DIMRND
 40
0.0
  9
$DIMDLE
 40
0.0
  9
$DIMEXE
 40
0.18
  9
$DIMTP
 40
0.0
  9
$DIMTM
 40
0.0
  9
$DIMTXT
 40
0.18
  9
$DIMCEN
 40
0.09
  9
$DIMTSZ
 40
0.0
  9
$DIMTOL
 70
     0
  9
$DIMLIM
 70
     0
  9
$DIMTIH
 70
     1
  9
$DIMTOH
 70
     1
  9
$DIMSE1
 70
     0
  9
$DIMSE2
 70
     0
  9
$DIMTAD
 70
     0
  9
$DIMZIN
 70
     0
  9
$DIMBLK
  1

  9
$DIMASO
 70
     1
  9
$DIMSHO
 70
     1
  9
$DIMPOST
  1

  9
$DIMAPOST
  1

  9
$DIMALT
 70
     0
  9
$DIMALTD
 70
     2
  9
$DIMALTF
 40
25.4
  9
$DIMLFAC
 40
1.0
  9
$DIMTOFL
 70
     0
  9
$DIMTVP
 40
0.0
  9
$DIMTIX
 70
     0
  9
$DIMSOXD
 70
     0
  9
$DIMSAH
 70
     0
  9
$DIMBLK1
  1

  9
$DIMBLK2
  1

  9
$DIMSTYLE
  2
STANDARD
  9
$DIMCLRD
 70
     0
  9
$DIMCLRE
 70
     0
  9
$DIMCLRT
 70
     0
  9
$DIMTFAC
 40
1.0
  9
$DIMGAP
 40
0.09
  9
$LUNITS
 70
     2
  9
$LUPREC
 70
     4
  9
$SKETCHINC
 40
0.1
  9
$FILLETRAD
 40
0.5
  9
$AUNITS
 70
     0
  9
$AUPREC
 70
     0
  9
$MENU
  1
.
  9
$ELEVATION
 40
0.0
  9
$PELEVATION
 40
0.0
  9
$THICKNESS
 40
0.0
  9
$LIMCHECK
 70
     0
  9
$CHAMFERA
 40
0.0
  9
$CHAMFERB
 40
0.0
  9
$SKPOLY
 70
     0
  9
$TDCREATE
 40
2454910.5
  9
$TDUPDATE
 40
2457135.464981424
  9
$TDINDWG
 40
0.0000000116
  9
$TDUSRTIMER
 40
0.0000000116
  9
$USRTIMER
 70
     1
  9
$ANGBASE
 50
0.0
  9
$ANGDIR
 70
     0
  9
$PDMODE
 70
     0
  9
$PDSIZE
 40
0.0
  9
$PLINEWID
 40
0.0
  9
$COORDS
 70
     1
  9
$SPLFRAME
 70
     0
  9
$SPLINETYPE
 70
     6
  9
$SPLINESEGS
 70
     8
  9
$ATTDIA
 70
     0
  9
$ATTREQ
 70
     1
  9
$HANDLING
 70
     1
  9
$HANDSEED
  5
8E5
  9
$SURFTAB1
 70
     6
  9
$SURFTAB2
 70
     6
  9
$SURFTYPE
 70
     6
  9
$SURFU
 70
     6
  9
$SURFV
 70
     6
  9
$UCSNAME
  2

  9
$UCSORG
 10
0.0
 20
0.0
 30
0.0
  9
$UCSXDIR
 10
1.0
 20
0.0
 30
0.0
  9
$UCSYDIR
 10
0.0
 20
1.0
 30
0.0
  9
$PUCSNAME
  2

  9
$PUCSORG
 10
0.0
 20
0.0
 30
0.0
  9
$PUCSXDIR
 10
1.0
 20
0.0
 30
0.0
  9
$PUCSYDIR
 10
0.0
 20
1.0
 30
0.0
  9
$USERI1
 70
     0
  9
$USERI2
 70
     0
  9
$USERI3
 70
     0
  9
$USERI4
 70
     0
  9
$USERI5
 70
     0
  9
$USERR1
 40
0.0
  9
$USERR2
 40
0.0
  9
$USERR3
 40
0.0
  9
$USERR4
 40
0.0
  9
$USERR5
 40
0.0
  9
$WORLDVIEW
 70
     1
  9
$SHADEDGE
 70
     3
  9
$SHADEDIF
 70
    70
  9
$TILEMODE
 70
     1
  9
$MAXACTVP
 70
    64
  9
$PLIMCHECK
 70
     0
  9
$PEXTMIN
 10
1.000000000000000E+20
 20
1.000000000000000E+20
 30
1.000000000000000E+20
  9
$PEXTMAX
 10
-1.000000000000000E+20
 20
-1.000000000000000E+20
 30
-1.000000000000000E+20
  9
$PLIMMIN
 10
0.0
 20
0.0
  9
$PLIMMAX
 10
12.0
 20
9.0
  9
$UNITMODE
 70
     0
  9
$VISRETAIN
 70
     1
  9
$PLINEGEN
 70
     0
  9
$PSLTSCALE
 70
     1
  0
ENDSEC
  0
SECTION
  2
TABLES
  0
TABLE
  2
VPORT
 70
     1
  0
VPORT
  2
*ACTIVE
 70
     0
 10
0.0
 20
0.0
 11
1.0
 21
1.0
 12
10.42990654205607
 22
4.5
 13
0.0
 23
0.0
 14
0.5
 24
0.5
 15
0.5
 25
0.5
 16
0.0
 26
0.0
 36
1.0
 17
0.0
 27
0.0
 37
0.0
 40
9.0
 41
1.972972972850329
 42
50.0
 43
0.0
 44
0.0
 50
0.0
 51
0.0
 71
     0
 72
   100
 73
     1
 74
     3
 75
     0
 76
     0
 77
     0
 78
     0
  0
ENDTAB
  0
TABLE
  2
LTYPE
 70
     2
  0
LTYPE
  2
CONTINUOUS
 70
     0
  3
Solid line
 72
    65
 73
     0
 40
0.0
  0
LTYPE
  2
CONTINUOUS2
 70
     0
  3
Solid Line
 72
    65
 73
     0
 40
0.0
  0
ENDTAB
  0
TABLE
  2
LAYER
 70
     2
  0
LAYER
  2
0
 70
     0
 62
     7
  6
CONTINUOUS
  0
LAYER
  2
LAYER_1
 70
     0
 62
    18
  6
CONTINUOUS
  0
ENDTAB
  0
TABLE
  2
STYLE
 70
     1
  0
STYLE
  2
STANDARD
 70
     0
 40
0.0
 41
1.0
 50
0.0
 71
     0
 42
0.2
  3
txt
  4

  0
ENDTAB
  0
TABLE
  2
VIEW
 70
     0
  0
ENDTAB
  0
TABLE
  2
UCS
 70
     0
  0
ENDTAB
  0
TABLE
  2
APPID
 70
     1
  0
APPID
  2
ACAD
 70
     0
  0
ENDTAB
  0
TABLE
  2
DIMSTYLE
 70
     1
  0
DIMSTYLE
  2
STANDARD
 70
     0
  3

  4

  5

  6

  7

 40
1.0
 41
0.18
 42
0.0625
 43
0.38
 44
0.18
 45
0.0
 46
0.0
 47
0.0
 48
0.0
140
0.18
141
0.09
142
0.0
143
25.4
144
1.0
145
0.0
146
1.0
147
0.09
 71
     0
 72
     0
 73
     1
 74
     1
 75
     0
 76
     0
 77
     0
 78
     0
170
     0
171
     2
172
     0
173
     0
174
     0
175
     0
176
     0
177
     0
178
     0
  0
ENDTAB
  0
ENDSEC
  0
SECTION
  2
BLOCKS
  0
BLOCK
  8
0
  2
$MODEL_SPACE
 70
     0
 10
0.0
 20
0.0
 30
0.0
  3
$MODEL_SPACE
  1

  0
ENDBLK
  5
21
  8
0
  0
BLOCK
 67
     1
  8
0
  2
$PAPER_SPACE
 70
     0
 10
0.0
 20
0.0
 30
0.0
  3
$PAPER_SPACE
  1

  0
ENDBLK
  5
1D
 67
     1
  8
0
  0
ENDSEC
  0
SECTION
  2
ENTITIES
  0
POLYLINE
  5
70
  8
LAYER_1
 66
     1
 10
0.0
 20
0.0
 30
0.0
 70
     1
  0
VERTEX
  5
81
  8
LAYER_1
 10
-17.38924576427799
 20
-65.99432777588956
 30
0.0
  0
VERTEX
  5
82
  8
LAYER_1
 10
-17.07970310757778
 20
-66.04210903905852
 30
0.0
  0
VERTEX
  5
83
  8
LAYER_1
 10
-16.79432123911743
 20
-66.06678221997659
 30
0.0
  0
VERTEX
  5
84
  8
LAYER_1
 10
-16.69129687429128
 20
-66.05908010002899
 30
0.0
  0
VERTEX
  5
85
  8
LAYER_1
 10
-16.587599696643
 20
-66.03190293468214
 30
0.0
  0
VERTEX
  5
86
  8
LAYER_1
 10
-16.48767095799419
 20
-65.98844807745755
 30
0.0
  0
VERTEX
  5
87
  8
LAYER_1
 10
-16.39595191016644
 20
-65.93191288187673
 30
0.0
  0
VERTEX
  5
88
  8
LAYER_1
 10
-16.31688380498135
 20
-65.86549470146119
 30
0.0
  0
VERTEX
  5
89
  8
LAYER_1
 10
-16.25490789426051
 20
-65.79239088973245
 30
0.0
  0
VERTEX
  5
8A
  8
LAYER_1
 10
-16.2144654298255
 20
-65.715798800212
 30
0.0
  0
VERTEX
  5
8B
  8
LAYER_1
 10
-16.19999766349792
 20
-65.63891578642138
 30
0.0
  0
VERTEX
  5
8C
  8
LAYER_1
 10
-16.19167380827108
 20
-65.59842122850213
 30
0.0
  0
VERTEX
  5
8D
  8
LAYER_1
 10
-16.1687801597566
 20
-65.57082887705786
 30
0.0
  0
VERTEX
  5
8E
  8
LAYER_1
 10
-16.13443359370355
 20
-65.55589370574206
 30
0.0
  0
VERTEX
  5
8F
  8
LAYER_1
 10
-16.09175098586098
 20
-65.55337068820819
 30
0.0
  0
VERTEX
  5
90
  8
LAYER_1
 10
-16.04384921197798
 20
-65.56301479810969
 30
0.0
  0
VERTEX
  5
91
  8
LAYER_1
 10
-15.9938451478036
 20
-65.58458100910002
 30
0.0
  0
VERTEX
  5
92
  8
LAYER_1
 10
-15.94485566908692
 20
-65.61782429483267
 30
0.0
  0
VERTEX
  5
93
  8
LAYER_1
 10
-15.899997651577
 20
-65.66249962896109
 30
0.0
  0
VERTEX
  5
94
  8
LAYER_1
 10
-15.86462113903383
 20
-65.69667307338803
 30
0.0
  0
VERTEX
  5
95
  8
LAYER_1
 10
-15.82188685550692
 20
-65.72352833331769
 30
0.0
  0
VERTEX
  5
96
  8
LAYER_1
 10
-15.77254973012861
 20
-65.7432380769999
 30
0.0
  0
VERTEX
  5
97
  8
LAYER_1
 10
-15.71736469203124
 20
-65.75597497268453
 30
0.0
  0
VERTEX
  5
98
  8
LAYER_1
 10
-15.59247059420876
 20
-65.76122089306043
 30
0.0
  0
VERTEX
  5
99
  8
LAYER_1
 10
-15.45324399509829
 20
-65.74064744044426
 30
0.0
  0
VERTEX
  5
9A
  8
LAYER_1
 10
-15.30572432775863
 20
-65.69563596083486
 30
0.0
  0
VERTEX
  5
9B
  8
LAYER_1
 10
-15.15595102524858
 20
-65.62756780023105
 30
0.0
  0
VERTEX
  5
9C
  8
LAYER_1
 10
-15.00996352062697
 20
-65.53782430463167
 30
0.0
  0
VERTEX
  5
9D
  8
LAYER_1
 10
-14.87380124695259
 20
-65.42778682003556
 30
0.0
  0
VERTEX
  5
9E
  8
LAYER_1
 10
-14.83244940496617
 20
-65.39531707040268
 30
0.0
  0
VERTEX
  5
9F
  8
LAYER_1
 10
-14.77685069403296
 20
-65.36644064428718
 30
0.0
  0
VERTEX
  5
A0
  8
LAYER_1
 10
-14.6961733887449
 20
-65.3387952690612
 30
0.0
  0
VERTEX
  5
A1
  8
LAYER_1
 10
-14.57958576369392
 20
-65.31001867209693
 30
0.0
  0
VERTEX
  5
A2
  8
LAYER_1
 10
-14.195352652671
 20
-65.23962272244216
 30
0.0
  0
VERTEX
  5
A3
  8
LAYER_1
 10
-13.53749755769968
 20
-65.13635461430027
 30
0.0
  0
VERTEX
  5
A4
  8
LAYER_1
 10
-12.78749752789736
 20
-65.02160431304608
 30
0.0
  0
VERTEX
  5
A5
  8
LAYER_1
 10
-8.13749734312296
 20
-64.87698700183121
 30
0.0
  0
VERTEX
  5
A6
  8
LAYER_1
 10
12.11250346153975
 20
-64.72463250993044
 30
0.0
  0
VERTEX
  5
A7
  8
LAYER_1
 10
34.31250434368849
 20
-64.42716817729014
 30
0.0
  0
VERTEX
  5
A8
  8
LAYER_1
 10
34.82577583521702
 20
-64.42608387853869
 30
0.0
  0
VERTEX
  5
A9
  8
LAYER_1
 10
35.09698991058948
 20
-64.42055755389812
 30
0.0
  0
VERTEX
  5
AA
  8
LAYER_1
 10
35.18915192429982
 20
-64.4125149704738
 30
0.0
  0
VERTEX
  5
AB
  8
LAYER_1
 10
35.2577759705721
 20
-64.39946916403062
 30
0.0
  0
VERTEX
  5
AC
  8
LAYER_1
 10
35.30693108581573
 20
-64.38030742785645
 30
0.0
  0
VERTEX
  5
AD
  8
LAYER_1
 10
35.34068630644011
 20
-64.35391705523918
 30
0.0
  0
VERTEX
  5
AE
  8
LAYER_1
 10
35.36311066885464
 20
-64.31918533946667
 30
0.0
  0
VERTEX
  5
AF
  8
LAYER_1
 10
35.3782732094687
 20
-64.27499957382679
 30
0.0
  0
VERTEX
  5
B0
  8
LAYER_1
 10
35.39873163243531
 20
-64.21675738401245
 30
0.0
  0
VERTEX
  5
B1
  8
LAYER_1
 10
35.4254382051779
 20
-64.16906206961721
 30
0.0
  0
VERTEX
  5
B2
  8
LAYER_1
 10
35.45493191333048
 20
-64.13683550583664
 30
0.0
  0
VERTEX
  5
B3
  8
LAYER_1
 10
35.48375174252709
 20
-64.12499956786633
 30
0.0
  0
VERTEX
  5
B4
  8
LAYER_1
 10
35.50947640441506
 20
-64.11986484447326
 30
0.0
  0
VERTEX
  5
B5
  8
LAYER_1
 10
35.53054267682634
 20
-64.10588416196734
 30
0.0
  0
VERTEX
  5
B6
  8
LAYER_1
 10
35.54477664467181
 20
-64.08519275185859
 30
0.0
  0
VERTEX
  5
B7
  8
LAYER_1
 10
35.55000439286232
 20
-64.05992584565699
 30
0.0
  0
VERTEX
  5
B8
  8
LAYER_1
 10
35.55000439286232
 20
-63.99485212344766
 30
0.0
  0
VERTEX
  5
B9
  8
LAYER_1
 10
35.84421418300134
 20
-63.47867582256019
 30
0.0
  0
VERTEX
  5
BA
  8
LAYER_1
 10
35.93130525551206
 20
-63.31971959682893
 30
0.0
  0
VERTEX
  5
BB
  8
LAYER_1
 10
36.00497603703879
 20
-63.1683278941851
 30
0.0
  0
VERTEX
  5
BC
  8
LAYER_1
 10
36.06877585639385
 20
-63.01278047910783
 30
0.0
  0
VERTEX
  5
BD
  8
LAYER_1
 10
36.1262540423895
 20
-62.84135711607622
 30
0.0
  0
VERTEX
  5
BE
  8
LAYER_1
 10
36.18095992383807
 20
-62.64233756956942
 30
0.0
  0
VERTEX
  5
BF
  8
LAYER_1
 10
36.23644282955184
 20
-62.40400160406653
 30
0.0
  0
VERTEX
  5
C0
  8
LAYER_1
 10
36.3639370290242
 20
-61.76249947398901
 30
0.0
  0
VERTEX
  5
C1
  8
LAYER_1
 10
36.45567449101044
 20
-61.22175016793724
 30
0.0
  0
VERTEX
  5
C2
  8
LAYER_1
 10
36.53611425495195
 20
-60.64949964174331
 30
0.0
  0
VERTEX
  5
C3
  8
LAYER_1
 10
36.5972428821471
 20
-60.10874901081061
 30
0.0
  0
VERTEX
  5
C4
  8
LAYER_1
 10
36.63104693389425
 20
-59.66249939054251
 30
0.0
  0
VERTEX
  5
C5
  8
LAYER_1
 10
36.67264378288044
 20
-58.76249935477972
 30
0.0
  0
VERTEX
  5
C6
  8
LAYER_1
 10
36.52823418759685
 20
-55.53749922662973
 30
0.0
  0
VERTEX
  5
C7
  8
LAYER_1
 10
36.38068393530149
 20
-54.59999918937683
 30
0.0
  0
VERTEX
  5
C8
  8
LAYER_1
 10
36.15234401545647
 20
-53.20449252860619
 30
0.0
  0
VERTEX
  5
C9
  8
LAYER_1
 10
36.08221602521986
 20
-52.83597459426585
 30
0.0
  0
VERTEX
  5
CA
  8
LAYER_1
 10
36.03159704829048
 20
-52.63138665623687
 30
0.0
  0
VERTEX
  5
CB
  8
LAYER_1
 10
35.98268788500745
 20
-52.4772875281983
 30
0.0
  0
VERTEX
  5
CC
  8
LAYER_1
 10
29.58750415593386
 20
-52.5745970599355
 30
0.0
  0
VERTEX
  5
CD
  8
LAYER_1
 10
15.4875035956502
 20
-52.66960982844996
 30
0.0
  0
VERTEX
  5
CE
  8
LAYER_1
 10
15.33273661975839
 20
-52.7911998225452
 30
0.0
  0
VERTEX
  5
CF
  8
LAYER_1
 10
-5.57674016711151
 20
-52.95767461202882
 30
0.0
  0
VERTEX
  5
D0
  8
LAYER_1
 10
-5.677711273479872
 20
-53.02007818764615
 30
0.0
  0
VERTEX
  5
D1
  8
LAYER_1
 10
-12.26249750703573
 20
-53.0343931821989
 30
0.0
  0
VERTEX
  5
D2
  8
LAYER_1
 10
-14.35050463510921
 20
-52.80449207292608
 30
0.0
  0
VERTEX
  5
D3
  8
LAYER_1
 10
-14.42775111562706
 20
-52.72724559240844
 30
0.0
  0
VERTEX
  5
D4
  8
LAYER_1
 10
-14.47396552805676
 20
-52.69725223239494
 30
0.0
  0
VERTEX
  5
D5
  8
LAYER_1
 10
-14.54269372673501
 20
-52.67269026554285
 30
0.0
  0
VERTEX
  5
D6
  8
LAYER_1
 10
-14.62465567338638
 20
-52.65609434199413
 30
0.0
  0
VERTEX
  5
D7
  8
LAYER_1
 10
-14.71057132973544
 20
-52.64999911189079
 30
0.0
  0
VERTEX
  5
D8
  8
LAYER_1
 10
-14.79404926195833
 20
-52.64408114290563
 30
0.0
  0
VERTEX
  5
D9
  8
LAYER_1
 10
-14.86937384093945
 20
-52.62796786101535
 30
0.0
  0
VERTEX
  5
DA
  8
LAYER_1
 10
-14.92827873546572
 20
-52.60412020381773
 30
0.0
  0
VERTEX
  5
DB
  8
LAYER_1
 10
-14.96249761432409
 20
-52.57499910891056
 30
0.0
  0
VERTEX
  5
DC
  8
LAYER_1
 10
-14.99198211799435
 20
-52.54587801400339
 30
0.0
  0
VERTEX
  5
DD
  8
LAYER_1
 10
-15.03799638700842
 20
-52.52203035680577
 30
0.0
  0
VERTEX
  5
DE
  8
LAYER_1
 10
-15.09424284023147
 20
-52.50591707491549
 30
0.0
  0
VERTEX
  5
DF
  8
LAYER_1
 10
-15.15442389652868
 20
-52.49999910593033
 30
0.0
  0
VERTEX
  5
E0
  8
LAYER_1
 10
-15.21094744684869
 20
-52.49471429337009
 30
0.0
  0
VERTEX
  5
E1
  8
LAYER_1
 10
-15.25723534419324
 20
-52.48032495224075
 30
0.0
  0
VERTEX
  5
E2
  8
LAYER_1
 10
-15.28851095050713
 20
-52.45902872736931
 30
0.0
  0
VERTEX
  5
E3
  8
LAYER_1
 10
-15.29999762773514
 20
-52.43302326358281
 30
0.0
  0
VERTEX
  5
E4
  8
LAYER_1
 10
-15.30873998689593
 20
-52.39780407575431
 30
0.0
  0
VERTEX
  5
E5
  8
LAYER_1
 10
-15.33386905075566
 20
-52.36442215992553
 30
0.0
  0
VERTEX
  5
E6
  8
LAYER_1
 10
-15.37373779888034
 20
-52.3331457539326
 30
0.0
  0
VERTEX
  5
E7
  8
LAYER_1
 10
-15.426699210836
 20
-52.30424309561161
 30
0.0
  0
VERTEX
  5
E8
  8
LAYER_1
 10
-15.56531194450428
 20
-52.25463197332993
 30
0.0
  0
VERTEX
  5
E9
  8
LAYER_1
 10
-15.73653108828865
 20
-52.21773469576935
 30
0.0
  0
VERTEX
  5
EA
  8
LAYER_1
 10
-15.92718047871726
 20
-52.19569716561875
 30
0.0
  0
VERTEX
  5
EB
  8
LAYER_1
 10
-16.12408395231824
 20
-52.19066528556699
 30
0.0
  0
VERTEX
  5
EC
  8
LAYER_1
 10
-16.31406534561973
 20
-52.20478495830295
 30
0.0
  0
VERTEX
  5
ED
  8
LAYER_1
 10
-16.48394849514988
 20
-52.2402020865155
 30
0.0
  0
VERTEX
  5
EE
  8
LAYER_1
 10
-16.64374223368498
 20
-52.28068647167663
 30
0.0
  0
VERTEX
  5
EF
  8
LAYER_1
 10
-16.78150842732767
 20
-52.29875917902324
 30
0.0
  0
VERTEX
  5
F0
  8
LAYER_1
 10
-16.90070829384625
 20
-52.29460772155767
 30
0.0
  0
VERTEX
  5
F1
  8
LAYER_1
 10
-17.00480305100901
 20
-52.26841961228229
 30
0.0
  0
VERTEX
  5
F2
  8
LAYER_1
 10
-17.0900635066658
 20
-52.24509415316165
 30
0.0
  0
VERTEX
  5
F3
  8
LAYER_1
 10
-17.19057116120697
 20
-52.23324885981625
 30
0.0
  0
VERTEX
  5
F4
  8
LAYER_1
 10
-17.30362404085586
 20
-52.23255520650341
 30
0.0
  0
VERTEX
  5
F5
  8
LAYER_1
 10
-17.42652017183583
 20
-52.24268466748045
 30
0.0
  0
VERTEX
  5
F6
  8
LAYER_1
 10
-17.55655758037022
 20
-52.26330871700471
 30
0.0
  0
VERTEX
  5
F7
  8
LAYER_1
 10
-17.69103429268237
 20
-52.29409882933354
 30
0.0
  0
VERTEX
  5
F8
  8
LAYER_1
 10
-17.82724833499564
 20
-52.33472647872425
 30
0.0
  0
VERTEX
  5
F9
  8
LAYER_1
 10
-17.96249773353338
 20
-52.38486313943417
 30
0.0
  0
VERTEX
  5
FA
  8
LAYER_1
 10
-18.2497636895541
 20
-52.49444460129573
 30
0.0
  0
VERTEX
  5
FB
  8
LAYER_1
 10
-18.50946924352499
 20
-52.57801242892045
 30
0.0
  0
VERTEX
  5
FC
  8
LAYER_1
 10
-18.72670776352326
 20
-52.63128960491618
 30
0.0
  0
VERTEX
  5
FD
  8
LAYER_1
 10
-18.88657261762607
 20
-52.64999911189079
 30
0.0
  0
VERTEX
  5
FE
  8
LAYER_1
 10
-18.9500275426909
 20
-52.65499227120299
 30
0.0
  0
VERTEX
  5
FF
  8
LAYER_1
 10
-19.00199163625505
 20
-52.66858750695403
 30
0.0
  0
VERTEX
  5
100
  8
LAYER_1
 10
-19.03710251028489
 20
-52.68870845586555
 30
0.0
  0
VERTEX
  5
101
  8
LAYER_1
 10
-19.04999777674675
 20
-52.71327875465924
 30
0.0
  0
VERTEX
  5
102
  8
LAYER_1
 10
-19.04999777674675
 20
-52.77655839742768
 30
0.0
  0
VERTEX
  5
103
  8
LAYER_1
 10
-20.36249782890081
 20
-53.03586893580778
 30
0.0
  0
VERTEX
  5
104
  8
LAYER_1
 10
-27.71249812096357
 20
-53.11608666940086
 30
0.0
  0
VERTEX
  5
105
  8
LAYER_1
 10
-66.92326405279192
 20
-53.21249913424253
 30
0.0
  0
VERTEX
  5
106
  8
LAYER_1
 10
-67.71779502320382
 20
-54.78749919682741
 30
0.0
  0
VERTEX
  5
107
  8
LAYER_1
 10
-67.72139736706065
 20
-54.91874920204282
 30
0.0
  0
VERTEX
  5
108
  8
LAYER_1
 10
-67.72871405862146
 20
-54.96971111813036
 30
0.0
  0
VERTEX
  5
109
  8
LAYER_1
 10
-67.74597277328498
 20
-55.0114445182262
 30
0.0
  0
VERTEX
  5
10A
  8
LAYER_1
 10
-67.77059437154558
 20
-55.0396427615342
 30
0.0
  0
VERTEX
  5
10B
  8
LAYER_1
 10
-67.7999997138977
 20
-55.04999920725822
 30
0.0
  0
VERTEX
  5
10C
  8
LAYER_1
 10
-67.82912080880487
 20
-55.06191544522915
 30
0.0
  0
VERTEX
  5
10D
  8
LAYER_1
 10
-67.8529684660025
 20
-55.09436064762521
 30
0.0
  0
VERTEX
  5
10E
  8
LAYER_1
 10
-67.86908174789278
 20
-55.14237954717139
 30
0.0
  0
VERTEX
  5
10F
  8
LAYER_1
 10
-67.87499971687794
 20
-55.20101687659265
 30
0.0
  0
VERTEX
  5
110
  8
LAYER_1
 10
-67.88054138537872
 20
-55.26993035173734
 30
0.0
  0
VERTEX
  5
111
  8
LAYER_1
 10
-67.89563008674224
 20
-55.34592885597601
 30
0.0
  0
VERTEX
  5
112
  8
LAYER_1
 10
-67.91796136476027
 20
-55.41978387331698
 30
0.0
  0
VERTEX
  5
113
  8
LAYER_1
 10
-67.94523076322454
 20
-55.48226688776852
 30
0.0
  0
VERTEX
  5
114
  8
LAYER_1
 10
-68.04940940885268
 20
-55.72846223532214
 30
0.0
  0
VERTEX
  5
115
  8
LAYER_1
 10
-68.20125915134429
 20
-56.13749925047159
 30
0.0
  0
VERTEX
  5
116
  8
LAYER_1
 10
-68.38705649311743
 20
-56.66249927133322
 30
0.0
  0
VERTEX
  5
117
  8
LAYER_1
 10
-68.96012511350146
 20
-58.98749936372042
 30
0.0
  0
VERTEX
  5
118
  8
LAYER_1
 10
-68.9624997600913
 20
-62.51249950379133
 30
0.0
  0
VERTEX
  5
119
  8
LAYER_1
 10
-68.85725272642681
 20
-62.92499952018261
 30
0.0
  0
VERTEX
  5
11A
  8
LAYER_1
 10
-68.79133738739925
 20
-63.13851121357634
 30
0.0
  0
VERTEX
  5
11B
  8
LAYER_1
 10
-68.68966697570019
 20
-63.41492144337298
 30
0.0
  0
VERTEX
  5
11C
  8
LAYER_1
 10
-68.56611169524527
 20
-63.71851170427995
 30
0.0
  0
VERTEX
  5
11D
  8
LAYER_1
 10
-68.43454174995013
 20
-64.01356349100463
 30
0.0
  0
VERTEX
  5
11E
  8
LAYER_1
 10
-68.25514632875237
 20
-64.36803945497478
 30
0.0
  0
VERTEX
  5
11F
  8
LAYER_1
 10
-68.16545709531621
 20
-64.52092665812556
 30
0.0
  0
VERTEX
  5
120
  8
LAYER_1
 10
-68.07109819453079
 20
-64.6642809865543
 30
0.0
  0
VERTEX
  5
121
  8
LAYER_1
 10
-67.96856313730288
 20
-64.8031281736366
 30
0.0
  0
VERTEX
  5
122
  8
LAYER_1
 10
-67.85434543453923
 20
-64.94249395274807
 30
0.0
  0
VERTEX
  5
123
  8
LAYER_1
 10
-67.57683613603156
 20
-65.24288422056095
 30
0.0
  0
VERTEX
  5
124
  8
LAYER_1
 10
-67.03659446492519
 20
-65.79614099568653
 30
0.0
  0
VERTEX
  5
125
  8
LAYER_1
 10
-17.94828992721468
 20
-65.73749963194132
 30
0.0
  0
VERTEX
  5
126
  8
LAYER_1
 10
-17.83214187900003
 20
-65.83379519455981
 30
0.0
  0
VERTEX
  5
127
  8
LAYER_1
 10
-17.76126130503134
 20
-65.87625365824047
 30
0.0
  0
VERTEX
  5
128
  8
LAYER_1
 10
-17.65413007541189
 20
-65.92067355990557
 30
0.0
  0
VERTEX
  5
129
  8
LAYER_1
 10
-17.525280718906
 20
-65.96178742423021
 30
0.0
  0
SEQEND
  5
8DB
  8
LAYER_1
  0
POLYLINE
  5
71
  8
LAYER_1
 66
     1
 10
0.0
 20
0.0
 30
0.0
 70
     1
  0
VERTEX
  5
12A
  8
LAYER_1
 10
-42.20014723734646
 20
-49.82034838578981
 30
0.0
  0
VERTEX
  5
12B
  8
LAYER_1
 10
-42.03749869018793
 20
-50.04311857414437
 30
0.0
  0
VERTEX
  5
12C
  8
LAYER_1
 10
-40.53749863058329
 20
-49.94450960845603
 30
0.0
  0
VERTEX
  5
12D
  8
LAYER_1
 10
-38.6999985575676
 20
-49.86988106060713
 30
0.0
  0
VERTEX
  5
12E
  8
LAYER_1
 10
-36.8074203573633
 20
-49.77790052370693
 30
0.0
  0
VERTEX
  5
12F
  8
LAYER_1
 10
-34.83749840408564
 20
-49.6615533638836
 30
0.0
  0
VERTEX
  5
130
  8
LAYER_1
 10
-32.81249832361937
 20
-49.52785421500896
 30
0.0
  0
VERTEX
  5
131
  8
LAYER_1
 10
-32.77386345559799
 20
-49.61590359078517
 30
0.0
  0
VERTEX
  5
132
  8
LAYER_1
 10
-30.0556807808302
 20
-49.45309927370876
 30
0.0
  0
VERTEX
  5
133
  8
LAYER_1
 10
-24.5249979943037
 20
-49.12272132918952
 30
0.0
  0
VERTEX
  5
134
  8
LAYER_1
 10
-21.71249788254499
 20
-48.95514770174668
 30
0.0
  0
VERTEX
  5
135
  8
LAYER_1
 10
-19.76249780505896
 20
-48.90377345634713
 30
0.0
  0
VERTEX
  5
136
  8
LAYER_1
 10
-14.89522206840994
 20
-48.58820433334266
 30
0.0
  0
VERTEX
  5
137
  8
LAYER_1
 10
-14.52015410580043
 20
-48.65990311738866
 30
0.0
  0
VERTEX
  5
138
  8
LAYER_1
 10
-11.62882573638262
 20
-48.48094747734231
 30
0.0
  0
VERTEX
  5
139
  8
LAYER_1
 10
-6.262497268617153
 20
-48.14993701078672
 30
0.0
  0
VERTEX
  5
13A
  8
LAYER_1
 10
-3.787497170269489
 20
-47.99788218427749
 30
0.0
  0
VERTEX
  5
13B
  8
LAYER_1
 10
-2.287497110664845
 20
-47.99931604559403
 30
0.0
  0
VERTEX
  5
13C
  8
LAYER_1
 10
2.21250306814909
 20
-47.70699408830568
 30
0.0
  0
VERTEX
  5
13D
  8
LAYER_1
 10
3.56250312179327
 20
-47.6558356975448
 30
0.0
  0
VERTEX
  5
13E
  8
LAYER_1
 10
4.836349636543142
 20
-47.61332137450801
 30
0.0
  0
VERTEX
  5
13F
  8
LAYER_1
 10
5.902588230035655
 20
-47.59166147978738
 30
0.0
  0
VERTEX
  5
140
  8
LAYER_1
 10
6.784790232009538
 20
-47.59216876800316
 30
0.0
  0
VERTEX
  5
141
  8
LAYER_1
 10
7.506526972203517
 20
-47.61615599377559
 30
0.0
  0
VERTEX
  5
142
  8
LAYER_1
 10
7.814586909676395
 20
-47.63736481906438
 30
0.0
  0
VERTEX
  5
143
  8
LAYER_1
 10
8.09136978035632
 20
-47.66493591172493
 30
0.0
  0
VERTEX
  5
144
  8
LAYER_1
 10
8.339822000460634
 20
-47.69903336608476
 30
0.0
  0
VERTEX
  5
145
  8
LAYER_1
 10
8.562889986206677
 20
-47.73982127647142
 30
0.0
  0
VERTEX
  5
146
  8
LAYER_1
 10
8.76352015381179
 20
-47.78746373721242
 30
0.0
  0
VERTEX
  5
147
  8
LAYER_1
 10
8.944658919493314
 20
-47.84212484263529
 30
0.0
  0
VERTEX
  5
148
  8
LAYER_1
 10
9.109252699468588
 20
-47.90396868706758
 30
0.0
  0
VERTEX
  5
149
  8
LAYER_1
 10
9.260247909954956
 20
-47.9731593648368
 30
0.0
  0
VERTEX
  5
14A
  8
LAYER_1
 10
9.40752152333595
 20
-48.03980748749401
 30
0.0
  0
VERTEX
  5
14B
  8
LAYER_1
 10
9.54498278204852
 20
-48.08677451870149
 30
0.0
  0
VERTEX
  5
14C
  8
LAYER_1
 10
9.672936869346188
 20
-48.11405441670628
 30
0.0
  0
VERTEX
  5
14D
  8
LAYER_1
 10
9.791688968482477
 20
-48.12164113975538
 30
0.0
  0
VERTEX
  5
14E
  8
LAYER_1
 10
9.901544262710914
 20
-48.10952864609583
 30
0.0
  0
VERTEX
  5
14F
  8
LAYER_1
 10
10.00280793528502
 20
-48.07771089397465
 30
0.0
  0
VERTEX
  5
150
  8
LAYER_1
 10
10.09578516945832
 20
-48.02618184163886
 30
0.0
  0
VERTEX
  5
151
  8
LAYER_1
 10
10.18078114848434
 20
-47.95493544733547
 30
0.0
  0
VERTEX
  5
152
  8
LAYER_1
 10
10.24892990890908
 20
-47.89235255526218
 30
0.0
  0
VERTEX
  5
153
  8
LAYER_1
 10
10.27311472021462
 20
-47.87798873005024
 30
0.0
  0
VERTEX
  5
154
  8
LAYER_1
 10
10.29286485732892
 20
-47.87529708088886
 30
0.0
  0
VERTEX
  5
155
  8
LAYER_1
 10
10.30979909906192
 20
-47.88456792940362
 30
0.0
  0
VERTEX
  5
156
  8
LAYER_1
 10
10.32553622422362
 20
-47.90609159722006
 30
0.0
  0
VERTEX
  5
157
  8
LAYER_1
 10
10.35989424007296
 20
-47.98705867726031
 30
0.0
  0
VERTEX
  5
158
  8
LAYER_1
 10
10.40454297411605
 20
-48.07688963630207
 30
0.0
  0
VERTEX
  5
159
  8
LAYER_1
 10
10.46697156552211
 20
-48.15657109343854
 30
0.0
  0
VERTEX
  5
15A
  8
LAYER_1
 10
10.54477531144665
 20
-48.22488115455251
 30
0.0
  0
VERTEX
  5
15B
  8
LAYER_1
 10
10.63554950904519
 20
-48.28059792552681
 30
0.0
  0
VERTEX
  5
15C
  8
LAYER_1
 10
10.73688945547323
 20
-48.32249951224422
 30
0.0
  0
VERTEX
  5
15D
  8
LAYER_1
 10
10.84639044788628
 20
-48.34936402058757
 30
0.0
  0
VERTEX
  5
15E
  8
LAYER_1
 10
10.96164778343984
 20
-48.35996955643965
 30
0.0
  0
VERTEX
  5
15F
  8
LAYER_1
 10
11.08025675928944
 20
-48.35309422568326
 30
0.0
  0
VERTEX
  5
160
  8
LAYER_1
 10
11.39713309217913
 20
-48.29810564253734
 30
0.0
  0
VERTEX
  5
161
  8
LAYER_1
 10
11.71102669304778
 20
-48.22342298751835
 30
0.0
  0
VERTEX
  5
162
  8
LAYER_1
 10
11.96813766362421
 20
-48.14360341888855
 30
0.0
  0
VERTEX
  5
163
  8
LAYER_1
 10
12.05858719434311
 20
-48.10631640392651
 30
0.0
  0
VERTEX
  5
164
  8
LAYER_1
 10
12.11466610563726
 20
-48.07320409491012
 30
0.0
  0
VERTEX
  5
165
  8
LAYER_1
 10
12.17610608120954
 20
-48.04037485197123
 30
0.0
  0
VERTEX
  5
166
  8
LAYER_1
 10
12.28198653290736
 20
-48.00195125968338
 30
0.0
  0
VERTEX
  5
167
  8
LAYER_1
 10
12.41744494976403
 20
-47.96271583797038
 30
0.0
  0
VERTEX
  5
168
  8
LAYER_1
 10
12.56761882081284
 20
-47.92745110675602
 30
0.0
  0
VERTEX
  5
169
  8
LAYER_1
 10
12.9375034943223
 20
-47.85063847001153
 30
0.0
  0
VERTEX
  5
16A
  8
LAYER_1
 10
33.11250429600477
 20
-46.58979841582872
 30
0.0
  0
VERTEX
  5
16B
  8
LAYER_1
 10
38.96250452846289
 20
-46.26174518312042
 30
0.0
  0
VERTEX
  5
16C
  8
LAYER_1
 10
49.31250493973494
 20
-45.59962399160068
 30
0.0
  0
VERTEX
  5
16D
  8
LAYER_1
 10
56.13750521093607
 20
-45.16413027922523
 30
0.0
  0
VERTEX
  5
16E
  8
LAYER_1
 10
57.56250526756048
 20
-45.07112042915684
 30
0.0
  0
VERTEX
  5
16F
  8
LAYER_1
 10
58.83328656805679
 20
-44.99862171582549
 30
0.0
  0
VERTEX
  5
170
  8
LAYER_1
 10
59.88750535994768
 20
-44.95492587535898
 30
0.0
  0
VERTEX
  5
171
  8
LAYER_1
 10
60.70824536229748
 20
-44.92428839246297
 30
0.0
  0
VERTEX
  5
172
  8
LAYER_1
 10
61.41768404113114
 20
-44.88318530477983
 30
0.0
  0
VERTEX
  5
173
  8
LAYER_1
 10
61.7837920673726
 20
-44.84930433715292
 30
0.0
  0
VERTEX
  5
174
  8
LAYER_1
 10
61.90989889554027
 20
-44.82731066824086
 30
0.0
  0
VERTEX
  5
175
  8
LAYER_1
 10
62.01272336353158
 20
-44.79620622569203
 30
0.0
  0
VERTEX
  5
176
  8
LAYER_1
 10
62.10327729369084
 20
-44.75168452182818
 30
0.0
  0
VERTEX
  5
177
  8
LAYER_1
 10
62.19257250836235
 20
-44.68943906897101
 30
0.0
  0
VERTEX
  5
178
  8
LAYER_1
 10
62.41143408061922
 20
-44.49455096556367
 30
0.0
  0
VERTEX
  5
179
  8
LAYER_1
 10
62.55260203597196
 20
-44.35624106047333
 30
0.0
  0
VERTEX
  5
17A
  8
LAYER_1
 10
62.66820637767933
 20
-44.23105180347547
 30
0.0
  0
VERTEX
  5
17B
  8
LAYER_1
 10
62.74631741937349
 20
-44.13274677242636
 30
0.0
  0
VERTEX
  5
17C
  8
LAYER_1
 10
62.77500547468662
 20
-44.07508954518227
 30
0.0
  0
VERTEX
  5
17D
  8
LAYER_1
 10
62.78916869662007
 20
-44.02914788791245
 30
0.0
  0
VERTEX
  5
17E
  8
LAYER_1
 10
62.82773192465666
 20
-43.96274168600125
 30
0.0
  0
VERTEX
  5
17F
  8
LAYER_1
 10
62.88480550215082
 20
-43.88476269612751
 30
0.0
  0
VERTEX
  5
180
  8
LAYER_1
 10
62.95449977245696
 20
-43.80410267497005
 30
0.0
  0
VERTEX
  5
181
  8
LAYER_1
 10
63.04322545106288
 20
-43.68253827689193
 30
0.0
  0
VERTEX
  5
182
  8
LAYER_1
 10
63.15251123548259
 20
-43.49267695516897
 30
0.0
  0
VERTEX
  5
183
  8
LAYER_1
 10
63.27298004105518
 20
-43.25556229633144
 30
0.0
  0
VERTEX
  5
184
  8
LAYER_1
 10
63.39525478311973
 20
-42.99223788690961
 30
0.0
  0
VERTEX
  5
185
  8
LAYER_1
 10
63.50995837701532
 20
-42.72374731343372
 30
0.0
  0
VERTEX
  5
186
  8
LAYER_1
 10
63.60771373808105
 20
-42.47113416243405
 30
0.0
  0
VERTEX
  5
187
  8
LAYER_1
 10
63.67914378165598
 20
-42.25544202044087
 30
0.0
  0
VERTEX
  5
188
  8
LAYER_1
 10
63.71487142307922
 20
-42.09771447398444
 30
0.0
  0
VERTEX
  5
189
  8
LAYER_1
 10
63.81874434841606
 20
-41.28749866038561
 30
0.0
  0
VERTEX
  5
18A
  8
LAYER_1
 10
63.84904884134355
 20
-40.95831572044386
 30
0.0
  0
VERTEX
  5
18B
  8
LAYER_1
 10
63.8598194426317
 20
-40.57960152963933
 30
0.0
  0
VERTEX
  5
18C
  8
LAYER_1
 10
63.85107328348644
 20
-40.1444691670695
 30
0.0
  0
VERTEX
  5
18D
  8
LAYER_1
 10
63.82282749511373
 20
-39.64603171183181
 30
0.0
  0
VERTEX
  5
18E
  8
LAYER_1
 10
63.74851065880512
 20
-38.60456478711988
 30
0.0
  0
VERTEX
  5
18F
  8
LAYER_1
 10
63.70683791597168
 20
-38.29603165818763
 30
0.0
  0
VERTEX
  5
190
  8
LAYER_1
 10
63.64846098213735
 20
-37.93341209929301
 30
0.0
  0
VERTEX
  5
191
  8
LAYER_1
 10
63.57758081726939
 20
-37.5884479450164
 30
0.0
  0
VERTEX
  5
192
  8
LAYER_1
 10
63.50845370244716
 20
-37.32326735726923
 30
0.0
  0
VERTEX
  5
193
  8
LAYER_1
 10
63.47900262664047
 20
-37.24001095144152
 30
0.0
  0
VERTEX
  5
194
  8
LAYER_1
 10
63.45533591874997
 20
-37.19999849796295
 30
0.0
  0
VERTEX
  5
195
  8
LAYER_1
 10
63.40744459927973
 20
-37.16249849647284
 30
0.0
  0
VERTEX
  5
196
  8
LAYER_1
 10
62.9907545115685
 20
-35.73749843984842
 30
0.0
  0
VERTEX
  5
197
  8
LAYER_1
 10
62.94580418990449
 20
-35.55131548386861
 30
0.0
  0
VERTEX
  5
198
  8
LAYER_1
 10
62.92042672592637
 20
-35.47110003609775
 30
0.0
  0
VERTEX
  5
199
  8
LAYER_1
 10
62.88455841698833
 20
-35.39032416296762
 30
0.0
  0
VERTEX
  5
19A
  8
LAYER_1
 10
62.8429693645256
 20
-35.31839216172685
 30
0.0
  0
VERTEX
  5
19B
  8
LAYER_1
 10
62.80042966997343
 20
-35.26470832962409
 30
0.0
  0
VERTEX
  5
19C
  8
LAYER_1
 10
62.76143683674005
 20
-35.21640274473305
 30
0.0
  0
VERTEX
  5
19D
  8
LAYER_1
 10
62.72950507994733
 20
-35.1591144859004
 30
0.0
  0
VERTEX
  5
19E
  8
LAYER_1
 10
62.7079295686009
 20
-35.10001135153428
 30
0.0
  0
VERTEX
  5
19F
  8
LAYER_1
 10
62.70000547170639
 20
-35.04626114004282
 30
0.0
  0
VERTEX
  5
1A0
  8
LAYER_1
 10
62.6891339797695
 20
-34.98779464550855
 30
0.0
  0
VERTEX
  5
1A1
  8
LAYER_1
 10
62.65801635255693
 20
-34.89266042803233
 30
0.0
  0
VERTEX
  5
1A2
  8
LAYER_1
 10
62.54402378389337
 20
-34.61079473731333
 30
0.0
  0
VERTEX
  5
1A3
  8
LAYER_1
 10
62.37598994889299
 20
-34.23747589400435
 30
0.0
  0
VERTEX
  5
1A4
  8
LAYER_1
 10
62.17187703073309
 20
-33.8095157242239
 30
0.0
  0
VERTEX
  5
1A5
  8
LAYER_1
 10
61.94964721259091
 20
-33.36372605409049
 30
0.0
  0
VERTEX
  5
1A6
  8
LAYER_1
 10
61.72726267764374
 20
-32.93691870972266
 30
0.0
  0
VERTEX
  5
1A7
  8
LAYER_1
 10
61.52268560906883
 20
-32.5659055172389
 30
0.0
  0
VERTEX
  5
1A8
  8
LAYER_1
 10
61.35387819004347
 20
-32.28749830275774
 30
0.0
  0
VERTEX
  5
1A9
  8
LAYER_1
 10
61.2347531926693
 20
-32.11867963164165
 30
0.0
  0
VERTEX
  5
1AA
  8
LAYER_1
 10
61.18440407269546
 20
-32.0664113919089
 30
0.0
  0
VERTEX
  5
1AB
  8
LAYER_1
 10
61.13218071435102
 20
-32.03164819233931
 30
0.0
  0
VERTEX
  5
1AC
  8
LAYER_1
 10
61.07207074950141
 20
-32.01144826514263
 30
0.0
  0
VERTEX
  5
1AD
  8
LAYER_1
 10
60.99806181001205
 20
-32.00286984252858
 30
0.0
  0
VERTEX
  5
1AE
  8
LAYER_1
 10
60.78429753457581
 20
-32.00881043988734
 30
0.0
  0
VERTEX
  5
1AF
  8
LAYER_1
 10
60.41250538080931
 20
-32.03012258893789
 30
0.0
  0
VERTEX
  5
1B0
  8
LAYER_1
 10
33.26250430196524
 20
-33.7506449433851
 30
0.0
  0
VERTEX
  5
1B1
  8
LAYER_1
 10
31.3125042244792
 20
-33.82697081764378
 30
0.0
  0
VERTEX
  5
1B2
  8
LAYER_1
 10
16.08750361949205
 20
-34.78074867617568
 30
0.0
  0
VERTEX
  5
1B3
  8
LAYER_1
 10
15.2625035867095
 20
-34.80912354013066
 30
0.0
  0
VERTEX
  5
1B4
  8
LAYER_1
 10
14.38111017487018
 20
-34.82680444879991
 30
0.0
  0
VERTEX
  5
1B5
  8
LAYER_1
 10
14.00180513012525
 20
-34.82405209257806
 30
0.0
  0
VERTEX
  5
1B6
  8
LAYER_1
 10
13.6633589161474
 20
-34.81356808506288
 30
0.0
  0
VERTEX
  5
1B7
  8
LAYER_1
 10
13.36571982542455
 20
-34.79535009306264
 30
0.0
  0
VERTEX
  5
1B8
  8
LAYER_1
 10
13.10883615044464
 20
-34.76939578338556
 30
0.0
  0
VERTEX
  5
1B9
  8
LAYER_1
 10
12.89265618369561
 20
-34.73570282283991
 30
0.0
  0
VERTEX
  5
1BA
  8
LAYER_1
 10
12.71712821766539
 20
-34.69426887823393
 30
0.0
  0
VERTEX
  5
1BB
  8
LAYER_1
 10
11.94948943916292
 20
-34.48284018665245
 30
0.0
  0
VERTEX
  5
1BC
  8
LAYER_1
 10
11.63687569373942
 20
-34.40854948904145
 30
0.0
  0
VERTEX
  5
1BD
  8
LAYER_1
 10
11.36264542237943
 20
-34.3535943115788
 30
0.0
  0
VERTEX
  5
1BE
  8
LAYER_1
 10
11.11998340871673
 20
-34.31676447028592
 30
0.0
  0
VERTEX
  5
1BF
  8
LAYER_1
 10
10.90207443638507
 20
-34.29684978118418
 30
0.0
  0
VERTEX
  5
1C0
  8
LAYER_1
 10
10.70210328901822
 20
-34.29264006029499
 30
0.0
  0
VERTEX
  5
1C1
  8
LAYER_1
 10
10.51325475024997
 20
-34.30292512363975
 30
0.0
  0
VERTEX
  5
1C2
  8
LAYER_1
 10
10.29633856972854
 20
-34.31554630297396
 30
0.0
  0
VERTEX
  5
1C3
  8
LAYER_1
 10
10.07589698240435
 20
-34.31574012018578
 30
0.0
  0
VERTEX
  5
1C4
  8
LAYER_1
 10
9.877710596593646
 20
-34.30420501251741
 30
0.0
  0
VERTEX
  5
1C5
  8
LAYER_1
 10
9.727560020612643
 20
-34.28163941721103
 30
0.0
  0
VERTEX
  5
1C6
  8
LAYER_1
 10
9.596849112364666
 20
-34.25846799473258
 30
0.0
  0
VERTEX
  5
1C7
  8
LAYER_1
 10
9.465554967017503
 20
-34.25149607378205
 30
0.0
  0
VERTEX
  5
1C8
  8
LAYER_1
 10
9.33140061464702
 20
-34.2612987074899
 30
0.0
  0
VERTEX
  5
1C9
  8
LAYER_1
 10
9.19210908532908
 20
-34.28845094898661
 30
0.0
  0
VERTEX
  5
1CA
  8
LAYER_1
 10
9.045403409139546
 20
-34.33352785140266
 30
0.0
  0
VERTEX
  5
1CB
  8
LAYER_1
 10
8.889006616154287
 20
-34.39710446786853
 30
0.0
  0
VERTEX
  5
1CC
  8
LAYER_1
 10
8.720641736449164
 20
-34.47975585151471
 30
0.0
  0
VERTEX
  5
1CD
  8
LAYER_1
 10
8.538031800100043
 20
-34.58205705547167
 30
0.0
  0
VERTEX
  5
1CE
  8
LAYER_1
 10
8.36412667018197
 20
-34.6754736410699
 30
0.0
  0
VERTEX
  5
1CF
  8
LAYER_1
 10
8.169236957528755
 20
-34.7655488031775
 30
0.0
  0
VERTEX
  5
1D0
  8
LAYER_1
 10
7.977191513435631
 20
-34.84202567186294
 30
0.0
  0
VERTEX
  5
1D1
  8
LAYER_1
 10
7.811819189197834
 20
-34.89464737719467
 30
0.0
  0
VERTEX
  5
1D2
  8
LAYER_1
 10
7.553446216155626
 20
-34.97430845014705
 30
0.0
  0
VERTEX
  5
1D3
  8
LAYER_1
 10
7.465767226062269
 20
-35.01087014700632
 30
0.0
  0
VERTEX
  5
1D4
  8
LAYER_1
 10
7.422780349491248
 20
-35.03893982295241
 30
0.0
  0
VERTEX
  5
1D5
  8
LAYER_1
 10
7.383057422217149
 20
-35.09286822747129
 30
0.0
  0
VERTEX
  5
1D6
  8
LAYER_1
 10
5.962503217160702
 20
-35.2781206939481
 30
0.0
  0
VERTEX
  5
1D7
  8
LAYER_1
 10
5.88750321418047
 20
-35.37737703082165
 30
0.0
  0
VERTEX
  5
1D8
  8
LAYER_1
 10
5.212503187358379
 20
-35.43298641120843
 30
0.0
  0
VERTEX
  5
1D9
  8
LAYER_1
 10
4.515471909660846
 20
-35.48195359698105
 30
0.0
  0
VERTEX
  5
1DA
  8
LAYER_1
 10
3.787503130733967
 20
-35.52159344563596
 30
0.0
  0
VERTEX
  5
1DB
  8
LAYER_1
 10
3.037503100931644
 20
-35.55459109967673
 30
0.0
  0
VERTEX
  5
1DC
  8
LAYER_1
 10
-1.060957400734296
 20
-35.81794051690387
 30
0.0
  0
VERTEX
  5
1DD
  8
LAYER_1
 10
-1.113353999949751
 20
-35.73316103847834
 30
0.0
  0
VERTEX
  5
1DE
  8
LAYER_1
 10
-5.062497220933437
 20
-35.98948195029234
 30
0.0
  0
VERTEX
  5
1DF
  8
LAYER_1
 10
-7.387497313320637
 20
-36.0740296800297
 30
0.0
  0
VERTEX
  5
1E0
  8
LAYER_1
 10
-9.48749739676714
 20
-36.19055998504839
 30
0.0
  0
VERTEX
  5
1E1
  8
LAYER_1
 10
-14.09999758005142
 20
-36.45111975991716
 30
0.0
  0
VERTEX
  5
1E2
  8
LAYER_1
 10
-16.6124976798892
 20
-36.59514922976723
 30
0.0
  0
VERTEX
  5
1E3
  8
LAYER_1
 10
-18.03749773651361
 20
-36.59761400911218
 30
0.0
  0
VERTEX
  5
1E4
  8
LAYER_1
 10
-22.454550543233
 20
-36.89058650428476
 30
0.0
  0
VERTEX
  5
1E5
  8
LAYER_1
 10
-22.56169084690494
 20
-36.82437015505052
 30
0.0
  0
VERTEX
  5
1E6
  8
LAYER_1
 10
-27.18749810010195
 20
-37.1211539182906
 30
0.0
  0
VERTEX
  5
1E7
  8
LAYER_1
 10
-28.08749813586473
 20
-37.13791855270281
 30
0.0
  0
VERTEX
  5
1E8
  8
LAYER_1
 10
-32.58749831467867
 20
-37.41748836830683
 30
0.0
  0
VERTEX
  5
1E9
  8
LAYER_1
 10
-34.23749838024378
 20
-37.42169185901341
 30
0.0
  0
VERTEX
  5
1EA
  8
LAYER_1
 10
-38.58368139391534
 20
-37.71303392694841
 30
0.0
  0
VERTEX
  5
1EB
  8
LAYER_1
 10
-38.69530645605799
 20
-37.64404584454793
 30
0.0
  0
VERTEX
  5
1EC
  8
LAYER_1
 10
-43.3367909294813
 20
-37.94999852776527
 30
0.0
  0
VERTEX
  5
1ED
  8
LAYER_1
 10
-43.40864775933119
 20
-37.94999852776527
 30
0.0
  0
VERTEX
  5
1EE
  8
LAYER_1
 10
-43.42557046882676
 20
-37.95740709251504
 30
0.0
  0
VERTEX
  5
1EF
  8
LAYER_1
 10
-43.4446573721639
 20
-37.97840963041401
 30
0.0
  0
VERTEX
  5
1F0
  8
LAYER_1
 10
-43.48709891700724
 20
-38.0538576875575
 30
0.0
  0
VERTEX
  5
1F1
  8
LAYER_1
 10
-43.53152270715005
 20
-38.16166482299167
 30
0.0
  0
VERTEX
  5
1F2
  8
LAYER_1
 10
-43.57347905588111
 20
-38.28715316051243
 30
0.0
  0
VERTEX
  5
1F3
  8
LAYER_1
 10
-43.60851827648921
 20
-38.41564482391571
 30
0.0
  0
VERTEX
  5
1F4
  8
LAYER_1
 10
-43.63219068226316
 20
-38.53246193699744
 30
0.0
  0
VERTEX
  5
1F5
  8
LAYER_1
 10
-43.64004658649175
 20
-38.62292662355352
 30
0.0
  0
VERTEX
  5
1F6
  8
LAYER_1
 10
-43.63665282342929
 20
-38.65368997057068
 30
0.0
  0
VERTEX
  5
1F7
  8
LAYER_1
 10
-43.62763630246378
 20
-38.6723610073799
 30
0.0
  0
VERTEX
  5
1F8
  8
LAYER_1
 10
-43.61709161536812
 20
-38.70474668223629
 30
0.0
  0
VERTEX
  5
1F9
  8
LAYER_1
 10
-43.62021289904066
 20
-38.7610934345457
 30
0.0
  0
VERTEX
  5
1FA
  8
LAYER_1
 10
-43.63584523828699
 20
-38.83347378855257
 30
0.0
  0
VERTEX
  5
1FB
  8
LAYER_1
 10
-43.6628337179127
 20
-38.91396026850135
 30
0.0
  0
VERTEX
  5
1FC
  8
LAYER_1
 10
-43.74109208902524
 20
-39.11249857395887
 30
0.0
  0
VERTEX
  5
1FD
  8
LAYER_1
 10
-43.83491773922135
 20
-40.83749864250422
 30
0.0
  0
VERTEX
  5
1FE
  8
LAYER_1
 10
-43.82980505804777
 20
-44.73749879747629
 30
0.0
  0
VERTEX
  5
1FF
  8
LAYER_1
 10
-43.70199907573758
 20
-45.52499882876873
 30
0.0
  0
VERTEX
  5
200
  8
LAYER_1
 10
-43.58421135407444
 20
-46.1862975053772
 30
0.0
  0
VERTEX
  5
201
  8
LAYER_1
 10
-43.44472607369211
 20
-46.85349978024203
 30
0.0
  0
VERTEX
  5
202
  8
LAYER_1
 10
-43.28455922498797
 20
-47.52207660581978
 30
0.0
  0
VERTEX
  5
203
  8
LAYER_1
 10
-43.10472679835947
 20
-48.18749893456697
 30
0.0
  0
VERTEX
  5
204
  8
LAYER_1
 10
-43.05319186119681
 20
-48.33566970903483
 30
0.0
  0
VERTEX
  5
205
  8
LAYER_1
 10
-42.97578842942702
 20
-48.51477965260711
 30
0.0
  0
VERTEX
  5
206
  8
LAYER_1
 10
-42.87665967778737
 20
-48.71734995315089
 30
0.0
  0
VERTEX
  5
207
  8
LAYER_1
 10
-42.75994878101517
 20
-48.93590179853324
 30
0.0
  0
VERTEX
  5
208
  8
LAYER_1
 10
-42.62979891384769
 20
-49.16295637662122
 30
0.0
  0
VERTEX
  5
209
  8
LAYER_1
 10
-42.49035325102222
 20
-49.39103487528195
 30
0.0
  0
VERTEX
  5
20A
  8
LAYER_1
 10
-42.34575496727605
 20
-49.61265848238244
 30
0.0
  0
SEQEND
  5
8DC
  8
LAYER_1
  0
POLYLINE
  5
72
  8
LAYER_1
 66
     1
 10
0.0
 20
0.0
 30
0.0
 70
     1
  0
VERTEX
  5
20B
  8
LAYER_1
 10
-64.3124995753169
 20
-32.75996747912048
 30
0.0
  0
VERTEX
  5
20C
  8
LAYER_1
 10
-64.21283160260646
 20
-32.7933907474908
 30
0.0
  0
VERTEX
  5
20D
  8
LAYER_1
 10
-64.05234331497923
 20
-32.82121281732621
 30
0.0
  0
VERTEX
  5
20E
  8
LAYER_1
 10
-63.85318315081531
 20
-32.84053064508015
 30
0.0
  0
VERTEX
  5
20F
  8
LAYER_1
 10
-63.63749954849482
 20
-32.84844118720606
 30
0.0
  0
VERTEX
  5
210
  8
LAYER_1
 10
-63.37743117878563
 20
-32.84363427000707
 30
0.0
  0
VERTEX
  5
211
  8
LAYER_1
 10
-63.05742140044458
 20
-32.82832535207441
 30
0.0
  0
VERTEX
  5
212
  8
LAYER_1
 10
-62.7180756838352
 20
-32.80489983829363
 30
0.0
  0
VERTEX
  5
213
  8
LAYER_1
 10
-62.39999949932098
 20
-32.77574313355032
 30
0.0
  0
VERTEX
  5
214
  8
LAYER_1
 10
-61.68749947100878
 20
-32.70004091473162
 30
0.0
  0
VERTEX
  5
215
  8
LAYER_1
 10
-39.48749858886003
 20
-32.32247524327069
 30
0.0
  0
VERTEX
  5
216
  8
LAYER_1
 10
-34.16249837726355
 20
-32.16627482460822
 30
0.0
  0
VERTEX
  5
217
  8
LAYER_1
 10
-15.24541610249018
 20
-31.81433110618915
 30
0.0
  0
VERTEX
  5
218
  8
LAYER_1
 10
-14.76645684499609
 20
-31.92504751697716
 30
0.0
  0
VERTEX
  5
219
  8
LAYER_1
 10
-14.40426772001031
 20
-32.00657228086951
 30
0.0
  0
VERTEX
  5
21A
  8
LAYER_1
 10
-14.12451992655746
 20
-32.06222752089487
 30
0.0
  0
VERTEX
  5
21B
  8
LAYER_1
 10
-13.85764892674047
 20
-32.10447232439495
 30
0.0
  0
VERTEX
  5
21C
  8
LAYER_1
 10
-13.53409018266223
 20
-32.14576577871141
 30
0.0
  0
VERTEX
  5
21D
  8
LAYER_1
 10
-13.32541273140312
 20
-32.16359239723366
 30
0.0
  0
VERTEX
  5
21E
  8
LAYER_1
 10
-13.24670468000948
 20
-32.16131584701331
 30
0.0
  0
VERTEX
  5
21F
  8
LAYER_1
 10
-13.17860600463053
 20
-32.14993590491611
 30
0.0
  0
VERTEX
  5
220
  8
LAYER_1
 10
-13.11625840015933
 20
-32.12821995677516
 30
0.0
  0
VERTEX
  5
221
  8
LAYER_1
 10
-13.05480356148895
 20
-32.09493538842355
 30
0.0
  0
VERTEX
  5
222
  8
LAYER_1
 10
-12.91513896112285
 20
-31.98872993442077
 30
0.0
  0
VERTEX
  5
223
  8
LAYER_1
 10
-12.82481169499371
 20
-31.90517052463922
 30
0.0
  0
VERTEX
  5
224
  8
LAYER_1
 10
-12.75668897857171
 20
-31.82728114456975
 30
0.0
  0
VERTEX
  5
225
  8
LAYER_1
 10
-12.71738644319907
 20
-31.76376975923714
 30
0.0
  0
VERTEX
  5
226
  8
LAYER_1
 10
-12.71061012820068
 20
-31.74012705366738
 30
0.0
  0
VERTEX
  5
227
  8
LAYER_1
 10
-12.71351972021795
 20
-31.72334433366613
 30
0.0
  0
VERTEX
  5
228
  8
LAYER_1
 10
-12.72922657586516
 20
-31.6848921661833
 30
0.0
  0
VERTEX
  5
229
  8
LAYER_1
 10
-12.72672607637341
 20
-31.65425090167015
 30
0.0
  0
VERTEX
  5
22A
  8
LAYER_1
 10
-12.70960841025464
 20
-31.63225149192052
 30
0.0
  0
VERTEX
  5
22B
  8
LAYER_1
 10
-12.6814637660208
 20
-31.61972488872824
 30
0.0
  0
VERTEX
  5
22C
  8
LAYER_1
 10
-12.64588233218384
 20
-31.61750204388716
 30
0.0
  0
VERTEX
  5
22D
  8
LAYER_1
 10
-12.60645429725569
 20
-31.62641390919108
 30
0.0
  0
VERTEX
  5
22E
  8
LAYER_1
 10
-12.5667698497483
 20
-31.64729143643386
 30
0.0
  0
VERTEX
  5
22F
  8
LAYER_1
 10
-12.53041917817363
 20
-31.68096557740933
 30
0.0
  0
VERTEX
  5
230
  8
LAYER_1
 10
-12.49373226791075
 20
-31.71863354690581
 30
0.0
  0
VERTEX
  5
231
  8
LAYER_1
 10
-12.45117660660912
 20
-31.75097532635579
 30
0.0
  0
VERTEX
  5
232
  8
LAYER_1
 10
-12.35175059514219
 20
-31.79977324507299
 30
0.0
  0
VERTEX
  5
233
  8
LAYER_1
 10
-12.23872427227809
 20
-31.82754519347441
 30
0.0
  0
VERTEX
  5
234
  8
LAYER_1
 10
-12.11868076652208
 20
-31.83447703147352
 30
0.0
  0
VERTEX
  5
235
  8
LAYER_1
 10
-11.99820320637941
 20
-31.8207546189838
 30
0.0
  0
VERTEX
  5
236
  8
LAYER_1
 10
-11.88387472035533
 20
-31.7865638159187
 30
0.0
  0
VERTEX
  5
237
  8
LAYER_1
 10
-11.78227843695511
 20
-31.73209048219172
 30
0.0
  0
VERTEX
  5
238
  8
LAYER_1
 10
-11.73831209889683
 20
-31.69730594755298
 30
0.0
  0
VERTEX
  5
239
  8
LAYER_1
 10
-11.69999748468399
 20
-31.65752047771632
 30
0.0
  0
VERTEX
  5
23A
  8
LAYER_1
 10
-11.60398722636758
 20
-31.58714943442951
 30
0.0
  0
VERTEX
  5
23B
  8
LAYER_1
 10
-11.42581362867806
 20
-31.48118214562344
 30
0.0
  0
VERTEX
  5
23C
  8
LAYER_1
 10
-11.18912977416223
 20
-31.34986601531124
 30
0.0
  0
VERTEX
  5
23D
  8
LAYER_1
 10
-10.31211063922009
 20
-31.19993213444756
 30
0.0
  0
VERTEX
  5
23E
  8
LAYER_1
 10
-9.934885432605018
 20
-31.14171561976848
 30
0.0
  0
VERTEX
  5
23F
  8
LAYER_1
 10
-9.55610829739185
 20
-31.09404133108761
 30
0.0
  0
VERTEX
  5
240
  8
LAYER_1
 10
-9.21981578103781
 20
-31.06182897387081
 30
0.0
  0
VERTEX
  5
241
  8
LAYER_1
 10
-8.970044431000119
 20
-31.04999825358391
 30
0.0
  0
VERTEX
  5
242
  8
LAYER_1
 10
-8.783853301543207
 20
-31.0447140513013
 30
0.0
  0
VERTEX
  5
243
  8
LAYER_1
 10
-8.620675247166538
 20
-31.03032637181895
 30
0.0
  0
VERTEX
  5
244
  8
LAYER_1
 10
-8.498107515679873
 20
-31.00903260618507
 30
0.0
  0
VERTEX
  5
245
  8
LAYER_1
 10
-8.433747354892972
 20
-30.98303014544787
 30
0.0
  0
VERTEX
  5
246
  8
LAYER_1
 10
-8.362497352063656
 20
-30.91606203731183
 30
0.0
  0
VERTEX
  5
247
  8
LAYER_1
 10
-4.987497217953205
 20
-30.82631864039102
 30
0.0
  0
VERTEX
  5
248
  8
LAYER_1
 10
-2.13749710470438
 20
-30.74598946227785
 30
0.0
  0
VERTEX
  5
249
  8
LAYER_1
 10
3.075003102421761
 20
-30.60268898077549
 30
0.0
  0
VERTEX
  5
24A
  8
LAYER_1
 10
5.437503196299076
 20
-30.53971767738629
 30
0.0
  0
VERTEX
  5
24B
  8
LAYER_1
 10
11.51250343769789
 20
-30.37782908410999
 30
0.0
  0
VERTEX
  5
24C
  8
LAYER_1
 10
12.52924560841977
 20
-30.30141365245567
 30
0.0
  0
VERTEX
  5
24D
  8
LAYER_1
 10
13.04501116298226
 20
-30.27176012309573
 30
0.0
  0
VERTEX
  5
24E
  8
LAYER_1
 10
13.69771428360762
 20
-30.24750909925324
 30
0.0
  0
VERTEX
  5
24F
  8
LAYER_1
 10
14.40368309197103
 20
-30.23116083061193
 30
0.0
  0
VERTEX
  5
250
  8
LAYER_1
 10
15.07924570974767
 20
-30.22521556685557
 30
0.0
  0
VERTEX
  5
251
  8
LAYER_1
 10
15.76630953488575
 20
-30.21954058663414
 30
0.0
  0
VERTEX
  5
252
  8
LAYER_1
 10
16.50359351180754
 20
-30.20392823850873
 30
0.0
  0
VERTEX
  5
253
  8
LAYER_1
 10
17.20264308189929
 20
-30.18076637702974
 30
0.0
  0
VERTEX
  5
254
  8
LAYER_1
 10
17.77500368654728
 20
-30.15244285674761
 30
0.0
  0
VERTEX
  5
255
  8
LAYER_1
 10
18.93750373274088
 20
-30.07945280058544
 30
0.0
  0
VERTEX
  5
256
  8
LAYER_1
 10
26.36250402778387
 20
-29.9107945878932
 30
0.0
  0
VERTEX
  5
257
  8
LAYER_1
 10
28.42500410974026
 20
-29.83902173052004
 30
0.0
  0
VERTEX
  5
258
  8
LAYER_1
 10
32.92500428855419
 20
-29.69992086517681
 30
0.0
  0
VERTEX
  5
259
  8
LAYER_1
 10
37.37709790219651
 20
-29.56716412920102
 30
0.0
  0
VERTEX
  5
25A
  8
LAYER_1
 10
39.39169141898131
 20
-29.50173540119533
 30
0.0
  0
VERTEX
  5
25B
  8
LAYER_1
 10
39.53484690711443
 20
-29.31961678939166
 30
0.0
  0
VERTEX
  5
25C
  8
LAYER_1
 10
39.61891735606805
 20
-29.20552240592327
 30
0.0
  0
VERTEX
  5
25D
  8
LAYER_1
 10
39.70194809927496
 20
-29.07903772572542
 30
0.0
  0
VERTEX
  5
25E
  8
LAYER_1
 10
39.86251304339659
 20
-28.79535035597929
 30
0.0
  0
VERTEX
  5
25F
  8
LAYER_1
 10
40.0117868893751
 20
-28.48146044182928
 30
0.0
  0
VERTEX
  5
260
  8
LAYER_1
 10
40.14501478710631
 20
-28.15027374495135
 30
0.0
  0
VERTEX
  5
261
  8
LAYER_1
 10
40.25744188648601
 20
-27.81469602702148
 30
0.0
  0
VERTEX
  5
262
  8
LAYER_1
 10
40.34431333740999
 20
-27.48763304971566
 30
0.0
  0
VERTEX
  5
263
  8
LAYER_1
 10
40.40087428977405
 20
-27.18199057470987
 30
0.0
  0
VERTEX
  5
264
  8
LAYER_1
 10
40.41630243833855
 20
-27.04123507609322
 30
0.0
  0
VERTEX
  5
265
  8
LAYER_1
 10
40.422369893474
 20
-26.91067436368008
 30
0.0
  0
VERTEX
  5
266
  8
LAYER_1
 10
40.42844447412821
 20
-26.80006684992508
 30
0.0
  0
VERTEX
  5
267
  8
LAYER_1
 10
40.4430365227032
 20
-26.70354492851888
 30
0.0
  0
VERTEX
  5
268
  8
LAYER_1
 10
40.46395893183298
 20
-26.6314901554276
 30
0.0
  0
VERTEX
  5
269
  8
LAYER_1
 10
40.48902459415157
 20
-26.59428408661736
 30
0.0
  0
VERTEX
  5
26A
  8
LAYER_1
 10
40.55304460172574
 20
-26.5547175459765
 30
0.0
  0
VERTEX
  5
26B
  8
LAYER_1
 10
40.60567828500504
 20
-25.97110778727643
 30
0.0
  0
VERTEX
  5
26C
  8
LAYER_1
 10
40.72453610806038
 20
-24.78749800473452
 30
0.0
  0
VERTEX
  5
26D
  8
LAYER_1
 10
40.74625663201625
 20
-24.48152749750949
 30
0.0
  0
VERTEX
  5
26E
  8
LAYER_1
 10
40.75309046065669
 20
-24.11408094762525
 30
0.0
  0
VERTEX
  5
26F
  8
LAYER_1
 10
40.74508743435831
 20
-23.71771791176701
 30
0.0
  0
VERTEX
  5
270
  8
LAYER_1
 10
40.72229739349774
 20
-23.32499794661999
 30
0.0
  0
VERTEX
  5
271
  8
LAYER_1
 10
40.57351981026603
 20
-21.41249787062407
 30
0.0
  0
VERTEX
  5
272
  8
LAYER_1
 10
40.51332631615423
 20
-20.73509411805462
 30
0.0
  0
VERTEX
  5
273
  8
LAYER_1
 10
40.43875945162741
 20
-20.07303009570866
 30
0.0
  0
VERTEX
  5
274
  8
LAYER_1
 10
40.3530152210347
 20
-19.44434552885176
 30
0.0
  0
VERTEX
  5
275
  8
LAYER_1
 10
40.25928962872523
 20
-18.86708014274951
 30
0.0
  0
VERTEX
  5
276
  8
LAYER_1
 10
40.16077867904814
 20
-18.3592736626675
 30
0.0
  0
VERTEX
  5
277
  8
LAYER_1
 10
40.06067837635254
 20
-17.93896581387133
 30
0.0
  0
VERTEX
  5
278
  8
LAYER_1
 10
40.01103096898191
 20
-17.76726129035092
 30
0.0
  0
VERTEX
  5
279
  8
LAYER_1
 10
39.96218472498758
 20
-17.62419632162656
 30
0.0
  0
VERTEX
  5
27A
  8
LAYER_1
 10
39.91453914491319
 20
-17.51202587335646
 30
0.0
  0
VERTEX
  5
27B
  8
LAYER_1
 10
39.86849372930239
 20
-17.43300491119881
 30
0.0
  0
VERTEX
  5
27C
  8
LAYER_1
 10
39.78569554321592
 20
-17.31977164457434
 30
0.0
  0
VERTEX
  5
27D
  8
LAYER_1
 10
34.16250433772802
 20
-17.49386871327395
 30
0.0
  0
VERTEX
  5
27E
  8
LAYER_1
 10
29.88750416785479
 20
-17.55474512424081
 30
0.0
  0
VERTEX
  5
27F
  8
LAYER_1
 10
29.58750415593386
 20
-17.68837081051054
 30
0.0
  0
VERTEX
  5
280
  8
LAYER_1
 10
25.31250398606062
 20
-17.77674694326978
 30
0.0
  0
VERTEX
  5
281
  8
LAYER_1
 10
19.83750376850367
 20
-17.92776213989833
 30
0.0
  0
VERTEX
  5
282
  8
LAYER_1
 10
13.162503503263
 20
-18.16745217616281
 30
0.0
  0
VERTEX
  5
283
  8
LAYER_1
 10
10.98750341683626
 20
-18.22674625104793
 30
0.0
  0
VERTEX
  5
284
  8
LAYER_1
 10
6.300003230571747
 20
-18.36782913792612
 30
0.0
  0
VERTEX
  5
285
  8
LAYER_1
 10
1.012503020465374
 20
-18.52174913921635
 30
0.0
  0
VERTEX
  5
286
  8
LAYER_1
 10
-1.762497089803219
 20
-18.59388032851352
 30
0.0
  0
VERTEX
  5
287
  8
LAYER_1
 10
-4.987497217953205
 20
-18.74678210047186
 30
0.0
  0
VERTEX
  5
288
  8
LAYER_1
 10
-9.712497405707836
 20
-18.78293294776527
 30
0.0
  0
VERTEX
  5
289
  8
LAYER_1
 10
-10.64999744296074
 20
-18.61014946468409
 30
0.0
  0
VERTEX
  5
28A
  8
LAYER_1
 10
-11.07566984890208
 20
-18.52285185004858
 30
0.0
  0
VERTEX
  5
28B
  8
LAYER_1
 10
-11.45025949335917
 20
-18.42803393877793
 30
0.0
  0
VERTEX
  5
28C
  8
LAYER_1
 10
-11.76221812602808
 20
-18.32895718272547
 30
0.0
  0
VERTEX
  5
28D
  8
LAYER_1
 10
-11.89110198472201
 20
-18.27884094161024
 30
0.0
  0
VERTEX
  5
28E
  8
LAYER_1
 10
-11.99999749660492
 20
-18.22888303374457
 30
0.0
  0
VERTEX
  5
28F
  8
LAYER_1
 10
-12.18895604207357
 20
-18.13899427733582
 30
0.0
  0
VERTEX
  5
290
  8
LAYER_1
 10
-12.36447441012711
 20
-18.06726470313541
 30
0.0
  0
VERTEX
  5
291
  8
LAYER_1
 10
-12.52720710082177
 20
-18.01357287443291
 30
0.0
  0
VERTEX
  5
292
  8
LAYER_1
 10
-12.67780861421375
 20
-17.97779735451787
 30
0.0
  0
VERTEX
  5
293
  8
LAYER_1
 10
-12.81693345035927
 20
-17.95981670667984
 30
0.0
  0
VERTEX
  5
294
  8
LAYER_1
 10
-12.94523610931456
 20
-17.95950949420839
 30
0.0
  0
VERTEX
  5
295
  8
LAYER_1
 10
-13.06337109113581
 20
-17.97675428039307
 30
0.0
  0
VERTEX
  5
296
  8
LAYER_1
 10
-13.17199289587925
 20
-18.01142962852344
 30
0.0
  0
VERTEX
  5
297
  8
LAYER_1
 10
-13.30005408042607
 20
-18.04731507884431
 30
0.0
  0
VERTEX
  5
298
  8
LAYER_1
 10
-13.48942744064617
 20
-18.07867205748612
 30
0.0
  0
VERTEX
  5
299
  8
LAYER_1
 10
-13.71458469803574
 20
-18.10212516335025
 30
0.0
  0
VERTEX
  5
29A
  8
LAYER_1
 10
-13.94999757409096
 20
-18.11429899533812
 30
0.0
  0
VERTEX
  5
29B
  8
LAYER_1
 10
-14.11447701000088
 20
-18.12133273587281
 30
0.0
  0
VERTEX
  5
29C
  8
LAYER_1
 10
-14.27222625145975
 20
-18.13568641046702
 30
0.0
  0
VERTEX
  5
29D
  8
LAYER_1
 10
-14.43100419209532
 20
-18.15915783601879
 30
0.0
  0
VERTEX
  5
29E
  8
LAYER_1
 10
-14.59856972553535
 20
-18.19354482942616
 30
0.0
  0
VERTEX
  5
29F
  8
LAYER_1
 10
-14.99109914533985
 20
-18.30225678739982
 30
0.0
  0
VERTEX
  5
2A0
  8
LAYER_1
 10
-15.51188565989536
 20
-18.47620481957231
 30
0.0
  0
VERTEX
  5
2A1
  8
LAYER_1
 10
-16.51127372334802
 20
-18.82499776780605
 30
0.0
  0
VERTEX
  5
2A2
  8
LAYER_1
 10
-16.75313570921761
 20
-18.82499776780605
 30
0.0
  0
VERTEX
  5
2A3
  8
LAYER_1
 10
-16.85266825395448
 20
-18.83043549051399
 30
0.0
  0
VERTEX
  5
2A4
  8
LAYER_1
 10
-16.94488042506985
 20
-18.84524117115441
 30
0.0
  0
VERTEX
  5
2A5
  8
LAYER_1
 10
-17.01949823543445
 20
-18.86715357850222
 30
0.0
  0
VERTEX
  5
2A6
  8
LAYER_1
 10
-17.06624769791901
 20
-18.89391148133235
 30
0.0
  0
VERTEX
  5
2A7
  8
LAYER_1
 10
-17.13749770075083
 20
-18.96282519485867
 30
0.0
  0
VERTEX
  5
2A8
  8
LAYER_1
 10
-19.46249779313803
 20
-19.03236147656249
 30
0.0
  0
VERTEX
  5
2A9
  8
LAYER_1
 10
-34.83749840408564
 20
-19.34213923111115
 30
0.0
  0
VERTEX
  5
2AA
  8
LAYER_1
 10
-36.41249846667051
 20
-19.42661647682768
 30
0.0
  0
VERTEX
  5
2AB
  8
LAYER_1
 10
-61.38749945908785
 20
-19.87247055992653
 30
0.0
  0
VERTEX
  5
2AC
  8
LAYER_1
 10
-64.42613233430924
 20
-19.96653948773119
 30
0.0
  0
VERTEX
  5
2AD
  8
LAYER_1
 10
-64.83578098697393
 20
-20.8122332120151
 30
0.0
  0
VERTEX
  5
2AE
  8
LAYER_1
 10
-65.0074681116208
 20
-21.18122002116436
 30
0.0
  0
VERTEX
  5
2AF
  8
LAYER_1
 10
-65.1721073863566
 20
-21.56072264321088
 30
0.0
  0
VERTEX
  5
2B0
  8
LAYER_1
 10
-65.31100587004656
 20
-21.90610035385411
 30
0.0
  0
VERTEX
  5
2B1
  8
LAYER_1
 10
-65.40547062155598
 20
-22.17271242879352
 30
0.0
  0
VERTEX
  5
2B2
  8
LAYER_1
 10
-65.6223632271197
 20
-22.83749792724848
 30
0.0
  0
VERTEX
  5
2B3
  8
LAYER_1
 10
-65.74085523327207
 20
-23.20506625420708
 30
0.0
  0
VERTEX
  5
2B4
  8
LAYER_1
 10
-65.90963778351863
 20
-23.8124979659915
 30
0.0
  0
VERTEX
  5
2B5
  8
LAYER_1
 10
-65.9895525576191
 20
-24.11249797791243
 30
0.0
  0
VERTEX
  5
2B6
  8
LAYER_1
 10
-66.1883917045114
 20
-24.9749980121851
 30
0.0
  0
VERTEX
  5
2B7
  8
LAYER_1
 10
-66.28685667513867
 20
-25.45215500239355
 30
0.0
  0
VERTEX
  5
2B8
  8
LAYER_1
 10
-66.32418450361088
 20
-25.68302219920246
 30
0.0
  0
VERTEX
  5
2B9
  8
LAYER_1
 10
-66.35485547164005
 20
-25.91998022336325
 30
0.0
  0
VERTEX
  5
2BA
  8
LAYER_1
 10
-66.40006555872289
 20
-26.44586383238679
 30
0.0
  0
VERTEX
  5
2BB
  8
LAYER_1
 10
-66.43016440109452
 20
-27.09719598675672
 30
0.0
  0
VERTEX
  5
2BC
  8
LAYER_1
 10
-66.47309795078533
 20
-28.35689392705568
 30
0.0
  0
VERTEX
  5
2BD
  8
LAYER_1
 10
-66.38104506776645
 20
-29.00969606275265
 30
0.0
  0
VERTEX
  5
2BE
  8
LAYER_1
 10
-66.32965548329959
 20
-29.35672777604517
 30
0.0
  0
VERTEX
  5
2BF
  8
LAYER_1
 10
-66.2795132955351
 20
-29.64827493078874
 30
0.0
  0
VERTEX
  5
2C0
  8
LAYER_1
 10
-66.2259978245261
 20
-29.89935559625068
 30
0.0
  0
VERTEX
  5
2C1
  8
LAYER_1
 10
-66.16448839032587
 20
-30.12498784169824
 30
0.0
  0
VERTEX
  5
2C2
  8
LAYER_1
 10
-66.09036431298753
 20
-30.34018973639872
 30
0.0
  0
VERTEX
  5
2C3
  8
LAYER_1
 10
-65.99900491256429
 20
-30.55997934961941
 30
0.0
  0
VERTEX
  5
2C4
  8
LAYER_1
 10
-65.88578950910934
 20
-30.7993747506276
 30
0.0
  0
VERTEX
  5
2C5
  8
LAYER_1
 10
-65.74609742267587
 20
-31.07339400869058
 30
0.0
  0
VERTEX
  5
2C6
  8
LAYER_1
 10
-65.59741428424346
 20
-31.33778693604079
 30
0.0
  0
VERTEX
  5
2C7
  8
LAYER_1
 10
-65.43025703736609
 20
-31.59835027765219
 30
0.0
  0
VERTEX
  5
2C8
  8
LAYER_1
 10
-65.24950322305375
 20
-31.84934579160183
 30
0.0
  0
VERTEX
  5
2C9
  8
LAYER_1
 10
-65.06003038231646
 20
-32.08503523596676
 30
0.0
  0
VERTEX
  5
2CA
  8
LAYER_1
 10
-64.86671605616414
 20
-32.29968036882404
 30
0.0
  0
VERTEX
  5
2CB
  8
LAYER_1
 10
-64.6744377856068
 20
-32.48754294825072
 30
0.0
  0
VERTEX
  5
2CC
  8
LAYER_1
 10
-64.48807311165439
 20
-32.64288473232385
 30
0.0
  0
SEQEND
  5
8DD
  8
LAYER_1
  0
POLYLINE
  5
73
  8
LAYER_1
 66
     1
 10
0.0
 20
0.0
 30
0.0
 70
     1
  0
VERTEX
  5
2CD
  8
LAYER_1
 10
67.08750564604998
 20
-17.18732572542667
 30
0.0
  0
VERTEX
  5
2CE
  8
LAYER_1
 10
67.65000566840172
 20
-17.24567143863715
 30
0.0
  0
VERTEX
  5
2CF
  8
LAYER_1
 10
68.17472613370578
 20
-17.28995961780652
 30
0.0
  0
VERTEX
  5
2D0
  8
LAYER_1
 10
68.64639445507052
 20
-17.31450743002453
 30
0.0
  0
VERTEX
  5
2D1
  8
LAYER_1
 10
68.81581065047872
 20
-17.31420221713274
 30
0.0
  0
VERTEX
  5
2D2
  8
LAYER_1
 10
68.96215791417424
 20
-17.3015333145943
 30
0.0
  0
VERTEX
  5
2D3
  8
LAYER_1
 10
69.09417374161595
 20
-17.27220679553719
 30
0.0
  0
VERTEX
  5
2D4
  8
LAYER_1
 10
69.22059562826271
 20
-17.22192873308939
 30
0.0
  0
VERTEX
  5
2D5
  8
LAYER_1
 10
69.35016106957337
 20
-17.14640520037889
 30
0.0
  0
VERTEX
  5
2D6
  8
LAYER_1
 10
69.49160756100677
 20
-17.04134227053365
 30
0.0
  0
VERTEX
  5
2D7
  8
LAYER_1
 10
69.6536725980218
 20
-16.90244601668166
 30
0.0
  0
VERTEX
  5
2D8
  8
LAYER_1
 10
69.84509367607728
 20
-16.7254225119509
 30
0.0
  0
VERTEX
  5
2D9
  8
LAYER_1
 10
69.97782037176036
 20
-16.58385910462317
 30
0.0
  0
VERTEX
  5
2DA
  8
LAYER_1
 10
70.1279232438769
 20
-16.3961899572239
 30
0.0
  0
VERTEX
  5
2DB
  8
LAYER_1
 10
70.28914973711343
 20
-16.17220155329824
 30
0.0
  0
VERTEX
  5
2DC
  8
LAYER_1
 10
70.4552472961565
 20
-15.92168037639131
 30
0.0
  0
VERTEX
  5
2DD
  8
LAYER_1
 10
70.61996336569267
 20
-15.65441291004826
 30
0.0
  0
VERTEX
  5
2DE
  8
LAYER_1
 10
70.77704539040846
 20
-15.38018563781422
 30
0.0
  0
VERTEX
  5
2DF
  8
LAYER_1
 10
70.92024081499045
 20
-15.10878504323434
 30
0.0
  0
VERTEX
  5
2E0
  8
LAYER_1
 10
71.04329708412519
 20
-14.84999760985374
 30
0.0
  0
VERTEX
  5
2E1
  8
LAYER_1
 10
71.08898730848918
 20
-14.7336416810559
 30
0.0
  0
VERTEX
  5
2E2
  8
LAYER_1
 10
71.13328034406815
 20
-14.59391771651113
 30
0.0
  0
VERTEX
  5
2E3
  8
LAYER_1
 10
71.21682466299373
 20
-14.25140682641781
 30
0.0
  0
VERTEX
  5
2E4
  8
LAYER_1
 10
71.29222966914747
 20
-13.83654723204779
 30
0.0
  0
VERTEX
  5
2E5
  8
LAYER_1
 10
71.35779499077489
 20
-13.36342122587508
 30
0.0
  0
VERTEX
  5
2E6
  8
LAYER_1
 10
71.41182025612152
 20
-12.84611110037368
 30
0.0
  0
VERTEX
  5
2E7
  8
LAYER_1
 10
71.45260509343288
 20
-12.2986991480176
 30
0.0
  0
VERTEX
  5
2E8
  8
LAYER_1
 10
71.47844913095452
 20
-11.73526766128085
 30
0.0
  0
VERTEX
  5
2E9
  8
LAYER_1
 10
71.48765199693193
 20
-11.16989893263741
 30
0.0
  0
VERTEX
  5
2EA
  8
LAYER_1
 10
71.48813934960845
 20
-10.30230036717978
 30
0.0
  0
VERTEX
  5
2EB
  8
LAYER_1
 10
71.41342482871525
 20
-10.00739888644381
 30
0.0
  0
VERTEX
  5
2EC
  8
LAYER_1
 10
71.34559369938938
 20
-9.688968461296813
 30
0.0
  0
VERTEX
  5
2ED
  8
LAYER_1
 10
71.28742860928566
 20
-9.337497390806675
 30
0.0
  0
VERTEX
  5
2EE
  8
LAYER_1
 10
71.19737584749771
 20
-8.841325496090576
 30
0.0
  0
VERTEX
  5
2EF
  8
LAYER_1
 10
71.0528786139098
 20
-8.174997344613075
 30
0.0
  0
VERTEX
  5
2F0
  8
LAYER_1
 10
70.8696103170704
 20
-7.387497313320637
 30
0.0
  0
VERTEX
  5
2F1
  8
LAYER_1
 10
70.83369644896507
 20
-7.220706035113338
 30
0.0
  0
VERTEX
  5
2F2
  8
LAYER_1
 10
70.78717285522832
 20
-7.047256191194474
 30
0.0
  0
VERTEX
  5
2F3
  8
LAYER_1
 10
70.72575049783893
 20
-6.864456020957235
 30
0.0
  0
VERTEX
  5
2F4
  8
LAYER_1
 10
70.68242291260052
 20
-6.73065078869339
 30
0.0
  0
VERTEX
  5
2F5
  8
LAYER_1
 10
70.67511441038044
 20
-6.68994676339189
 30
0.0
  0
VERTEX
  5
2F6
  8
LAYER_1
 10
70.67940377105654
 20
-6.67499728500843
 30
0.0
  0
VERTEX
  5
2F7
  8
LAYER_1
 10
70.70508912729497
 20
-6.67499728500843
 30
0.0
  0
VERTEX
  5
2F8
  8
LAYER_1
 10
69.98696031817957
 20
-4.912497214972973
 30
0.0
  0
VERTEX
  5
2F9
  8
LAYER_1
 10
69.63750574737787
 20
-4.870536768801372
 30
0.0
  0
VERTEX
  5
2FA
  8
LAYER_1
 10
42.86250468343496
 20
-2.619356873755052
 30
0.0
  0
VERTEX
  5
2FB
  8
LAYER_1
 10
31.61250423640013
 20
-1.658912428602562
 30
0.0
  0
VERTEX
  5
2FC
  8
LAYER_1
 10
30.71250420063734
 20
-1.501785131813747
 30
0.0
  0
VERTEX
  5
2FD
  8
LAYER_1
 10
29.70000416040421
 20
-1.468394954343751
 30
0.0
  0
VERTEX
  5
2FE
  8
LAYER_1
 10
29.19738695293199
 20
-1.445919276708661
 30
0.0
  0
VERTEX
  5
2FF
  8
LAYER_1
 10
28.57734786579385
 20
-1.409406234883948
 30
0.0
  0
VERTEX
  5
300
  8
LAYER_1
 10
27.30000406503677
 20
-1.314470626672502
 30
0.0
  0
VERTEX
  5
301
  8
LAYER_1
 10
25.91250400990248
 20
-1.193936476471251
 30
0.0
  0
VERTEX
  5
302
  8
LAYER_1
 10
25.68750400096178
 20
-1.18924456722479
 30
0.0
  0
VERTEX
  5
303
  8
LAYER_1
 10
25.52444487251597
 20
-1.174163080476429
 30
0.0
  0
VERTEX
  5
304
  8
LAYER_1
 10
25.3145461022317
 20
-1.13557780279025
 30
0.0
  0
VERTEX
  5
305
  8
LAYER_1
 10
25.06233417055834
 20
-1.074836232619137
 30
0.0
  0
VERTEX
  5
306
  8
LAYER_1
 10
24.77233555794532
 20
-0.9932858684159758
 30
0.0
  0
VERTEX
  5
307
  8
LAYER_1
 10
24.44907674484202
 20
-0.8922742086336519
 30
0.0
  0
VERTEX
  5
308
  8
LAYER_1
 10
24.09708421169784
 20
-0.7731487517250504
 30
0.0
  0
VERTEX
  5
309
  8
LAYER_1
 10
23.72088443896219
 20
-0.6372569961430564
 30
0.0
  0
VERTEX
  5
30A
  8
LAYER_1
 10
23.32500390708447
 20
-0.4859464403405553
 30
0.0
  0
VERTEX
  5
30B
  8
LAYER_1
 10
22.31250386685133
 20
-0.0887467100067596
 30
0.0
  0
VERTEX
  5
30C
  8
LAYER_1
 10
21.93750385195017
 20
-0.0502501133816793
 30
0.0
  0
VERTEX
  5
30D
  8
LAYER_1
 10
21.55090044777855
 20
0.0034880726119191
 30
0.0
  0
VERTEX
  5
30E
  8
LAYER_1
 10
21.14800292250372
 20
0.0786293415485346
 30
0.0
  0
VERTEX
  5
30F
  8
LAYER_1
 10
20.91612025557085
 20
0.1224576933632369
 30
0.0
  0
VERTEX
  5
310
  8
LAYER_1
 10
20.8265397844195
 20
0.1308258646728125
 30
0.0
  0
VERTEX
  5
311
  8
LAYER_1
 10
20.74639178284113
 20
0.1294965634536709
 30
0.0
  0
VERTEX
  5
312
  8
LAYER_1
 10
20.66957017185794
 20
0.1179696876081616
 30
0.0
  0
VERTEX
  5
313
  8
LAYER_1
 10
20.58996887249212
 20
0.0957451350386345
 30
0.0
  0
VERTEX
  5
314
  8
LAYER_1
 10
20.3980028927014
 20
0.0172025913369254
 30
0.0
  0
VERTEX
  5
315
  8
LAYER_1
 10
20.23222706294455
 20
-0.0458982923915556
 30
0.0
  0
VERTEX
  5
316
  8
LAYER_1
 10
20.02886913729846
 20
-0.1054850065445407
 30
0.0
  0
VERTEX
  5
317
  8
LAYER_1
 10
19.81370330606923
 20
-0.1548480361128028
 30
0.0
  0
VERTEX
  5
318
  8
LAYER_1
 10
19.61250375956297
 20
-0.1872778660871148
 30
0.0
  0
VERTEX
  5
319
  8
LAYER_1
 10
18.90000373125076
 20
-0.2784596753980395
 30
0.0
  0
VERTEX
  5
31A
  8
LAYER_1
 10
18.63750372081995
 20
-0.3169706358016526
 30
0.0
  0
VERTEX
  5
31B
  8
LAYER_1
 10
15.71250360459089
 20
-0.3020239062013275
 30
0.0
  0
VERTEX
  5
31C
  8
LAYER_1
 10
10.98112720702851
 20
0.1219148755662189
 30
0.0
  0
VERTEX
  5
31D
  8
LAYER_1
 10
10.81013495654766
 20
0.2275938981762238
 30
0.0
  0
VERTEX
  5
31E
  8
LAYER_1
 10
8.198819079403592
 20
0.4586937824024062
 30
0.0
  0
VERTEX
  5
31F
  8
LAYER_1
 10
3.300003111362457
 20
0.9063675356648417
 30
0.0
  0
VERTEX
  5
320
  8
LAYER_1
 10
-1.424997076392174
 20
1.344226688201189
 30
0.0
  0
VERTEX
  5
321
  8
LAYER_1
 10
-3.862497173249722
 20
1.565511971701312
 30
0.0
  0
VERTEX
  5
322
  8
LAYER_1
 10
-4.387497194111347
 20
1.647557472191238
 30
0.0
  0
VERTEX
  5
323
  8
LAYER_1
 10
-6.824997290968895
 20
1.875778206800604
 30
0.0
  0
VERTEX
  5
324
  8
LAYER_1
 10
-11.77499748766422
 20
2.322226660494664
 30
0.0
  0
VERTEX
  5
325
  8
LAYER_1
 10
-14.287497587502
 20
2.54045437957933
 30
0.0
  0
VERTEX
  5
326
  8
LAYER_1
 10
-14.81249760836363
 20
2.693914418909046
 30
0.0
  0
VERTEX
  5
327
  8
LAYER_1
 10
-18.86249776929617
 20
3.005440062416568
 30
0.0
  0
VERTEX
  5
328
  8
LAYER_1
 10
-19.83749780803919
 20
3.154717445642703
 30
0.0
  0
VERTEX
  5
329
  8
LAYER_1
 10
-22.34999790787697
 20
3.381100423313327
 30
0.0
  0
VERTEX
  5
32A
  8
LAYER_1
 10
-27.20805632624317
 20
3.812659419156219
 30
0.0
  0
VERTEX
  5
32B
  8
LAYER_1
 10
-29.5536146447716
 20
4.017835437328486
 30
0.0
  0
VERTEX
  5
32C
  8
LAYER_1
 10
-29.63732839292877
 20
3.715169276580639
 30
0.0
  0
VERTEX
  5
32D
  8
LAYER_1
 10
-29.83139964821829
 20
3.075003102421761
 30
0.0
  0
VERTEX
  5
32E
  8
LAYER_1
 10
-29.95906868194666
 20
2.650190418982783
 30
0.0
  0
VERTEX
  5
32F
  8
LAYER_1
 10
-30.05826791385348
 20
2.249734673176148
 30
0.0
  0
VERTEX
  5
330
  8
LAYER_1
 10
-30.12301475165062
 20
1.900975627649952
 30
0.0
  0
VERTEX
  5
331
  8
LAYER_1
 10
-30.14059896266799
 20
1.754526043319548
 30
0.0
  0
VERTEX
  5
332
  8
LAYER_1
 10
-30.1473266030499
 20
1.63125304505229
 30
0.0
  0
VERTEX
  5
333
  8
LAYER_1
 10
-30.15368600778003
 20
1.522048939150409
 30
0.0
  0
VERTEX
  5
334
  8
LAYER_1
 10
-30.16902627374965
 20
1.432620224659331
 30
0.0
  0
VERTEX
  5
335
  8
LAYER_1
 10
-30.19104660190693
 20
1.372195417570765
 30
0.0
  0
VERTEX
  5
336
  8
LAYER_1
 10
-30.20384278960226
 20
1.355743390549833
 30
0.0
  0
VERTEX
  5
337
  8
LAYER_1
 10
-30.21744619320009
 20
1.350003033876419
 30
0.0
  0
VERTEX
  5
338
  8
LAYER_1
 10
-30.23176016121997
 20
1.343497296313217
 30
0.0
  0
VERTEX
  5
339
  8
LAYER_1
 10
-30.24659284694792
 20
1.324851665689494
 30
0.0
  0
VERTEX
  5
33A
  8
LAYER_1
 10
-30.27609280060059
 20
1.256370217655785
 30
0.0
  0
VERTEX
  5
33B
  8
LAYER_1
 10
-30.30250291230339
 20
1.155017674565897
 30
0.0
  0
VERTEX
  5
33C
  8
LAYER_1
 10
-30.32238004020157
 20
1.031253021210432
 30
0.0
  0
VERTEX
  5
33D
  8
LAYER_1
 10
-30.35986591182409
 20
0.712503008544445
 30
0.0
  0
VERTEX
  5
33E
  8
LAYER_1
 10
-30.67429613703962
 20
-1.604632919578407
 30
0.0
  0
VERTEX
  5
33F
  8
LAYER_1
 10
-30.75288218791177
 20
-1.852235640674081
 30
0.0
  0
VERTEX
  5
340
  8
LAYER_1
 10
-30.76228970567208
 20
-4.16249718517065
 30
0.0
  0
VERTEX
  5
341
  8
LAYER_1
 10
-30.67806184932871
 20
-5.287497229874134
 30
0.0
  0
VERTEX
  5
342
  8
LAYER_1
 10
-30.67294029224104
 20
-5.287497229874134
 30
0.0
  0
VERTEX
  5
343
  8
LAYER_1
 10
-30.63350033179662
 20
-5.680619441203831
 30
0.0
  0
VERTEX
  5
344
  8
LAYER_1
 10
-30.61558162980486
 20
-5.821730105072253
 30
0.0
  0
VERTEX
  5
345
  8
LAYER_1
 10
-30.58602792647362
 20
-5.976064905339816
 30
0.0
  0
VERTEX
  5
346
  8
LAYER_1
 10
-30.49740979309067
 20
-6.312083421491771
 30
0.0
  0
VERTEX
  5
347
  8
LAYER_1
 10
-30.37843448624389
 20
-6.6640280024985
 30
0.0
  0
VERTEX
  5
348
  8
LAYER_1
 10
-30.23989056052936
 20
-7.007251661198808
 30
0.0
  0
VERTEX
  5
349
  8
LAYER_1
 10
-30.09256657054319
 20
-7.317107410431499
 30
0.0
  0
VERTEX
  5
34A
  8
LAYER_1
 10
-29.94725107088147
 20
-7.568948263035377
 30
0.0
  0
VERTEX
  5
34B
  8
LAYER_1
 10
-29.87871792823357
 20
-7.665410919613637
 30
0.0
  0
VERTEX
  5
34C
  8
LAYER_1
 10
-29.81473261614031
 20
-7.738127231849247
 30
0.0
  0
VERTEX
  5
34D
  8
LAYER_1
 10
-29.75664370392622
 20
-7.784016326347055
 30
0.0
  0
VERTEX
  5
34E
  8
LAYER_1
 10
-29.7057997609158
 20
-7.799997329711914
 30
0.0
  0
VERTEX
  5
34F
  8
LAYER_1
 10
-29.56412819697526
 20
-7.799997329711914
 30
0.0
  0
VERTEX
  5
350
  8
LAYER_1
 10
-26.81249808520079
 20
-8.03181435494325
 30
0.0
  0
VERTEX
  5
351
  8
LAYER_1
 10
-26.58749807626009
 20
-8.127851470394248
 30
0.0
  0
VERTEX
  5
352
  8
LAYER_1
 10
-23.88749796897173
 20
-8.375519072904652
 30
0.0
  0
VERTEX
  5
353
  8
LAYER_1
 10
-18.41249775141478
 20
-8.882335905216706
 30
0.0
  0
VERTEX
  5
354
  8
LAYER_1
 10
-12.67499752342701
 20
-9.402726156154955
 30
0.0
  0
VERTEX
  5
355
  8
LAYER_1
 10
-9.712497405707836
 20
-9.66396717729154
 30
0.0
  0
VERTEX
  5
356
  8
LAYER_1
 10
-9.48749739676714
 20
-9.747621440827785
 30
0.0
  0
VERTEX
  5
357
  8
LAYER_1
 10
-4.012497179210186
 20
-10.20237339144985
 30
0.0
  0
VERTEX
  5
358
  8
LAYER_1
 10
-3.787497170269489
 20
-10.29838895596139
 30
0.0
  0
VERTEX
  5
359
  8
LAYER_1
 10
-1.012497060000896
 20
-10.54084221851939
 30
0.0
  0
VERTEX
  5
35A
  8
LAYER_1
 10
4.612503163516521
 20
-11.02707376242658
 30
0.0
  0
VERTEX
  5
35B
  8
LAYER_1
 10
7.462503276765347
 20
-11.2708520437758
 30
0.0
  0
VERTEX
  5
35C
  8
LAYER_1
 10
7.537503279745579
 20
-11.37302923777357
 30
0.0
  0
VERTEX
  5
35D
  8
LAYER_1
 10
12.78750348836184
 20
-11.78674812227298
 30
0.0
  0
VERTEX
  5
35E
  8
LAYER_1
 10
13.08750350028276
 20
-11.91317191203185
 30
0.0
  0
VERTEX
  5
35F
  8
LAYER_1
 10
15.41250359266996
 20
-12.07936190610589
 30
0.0
  0
VERTEX
  5
360
  8
LAYER_1
 10
15.93750361353159
 20
-12.15772469690965
 30
0.0
  0
VERTEX
  5
361
  8
LAYER_1
 10
16.40194015465345
 20
-12.2326477381567
 30
0.0
  0
VERTEX
  5
362
  8
LAYER_1
 10
16.82970831216361
 20
-12.31324214937766
 30
0.0
  0
VERTEX
  5
363
  8
LAYER_1
 10
17.22017940223356
 20
-12.39933065402948
 30
0.0
  0
VERTEX
  5
364
  8
LAYER_1
 10
17.5727247410348
 20
-12.49073597556912
 30
0.0
  0
VERTEX
  5
365
  8
LAYER_1
 10
17.88671564473884
 20
-12.58728083745355
 30
0.0
  0
VERTEX
  5
366
  8
LAYER_1
 10
18.16152342951718
 20
-12.68878796313973
 30
0.0
  0
VERTEX
  5
367
  8
LAYER_1
 10
18.39651941154133
 20
-12.79508007608461
 30
0.0
  0
VERTEX
  5
368
  8
LAYER_1
 10
18.59107490698277
 20
-12.90597989974516
 30
0.0
  0
VERTEX
  5
369
  8
LAYER_1
 10
18.82311810047957
 20
-13.04667360489174
 30
0.0
  0
VERTEX
  5
36A
  8
LAYER_1
 10
19.01481303132948
 20
-13.13721400929393
 30
0.0
  0
VERTEX
  5
36B
  8
LAYER_1
 10
19.10211340750656
 20
-13.16618942906147
 30
0.0
  0
VERTEX
  5
36C
  8
LAYER_1
 10
19.18722692911556
 20
-13.18564177005761
 30
0.0
  0
VERTEX
  5
36D
  8
LAYER_1
 10
19.36142702342084
 20
-13.19999754428864
 30
0.0
  0
VERTEX
  5
36E
  8
LAYER_1
 10
19.52083699296984
 20
-13.20962853431176
 30
0.0
  0
VERTEX
  5
36F
  8
LAYER_1
 10
19.65198240363441
 20
-13.24120112168926
 30
0.0
  0
VERTEX
  5
370
  8
LAYER_1
 10
19.71041064920907
 20
-13.26647158499909
 30
0.0
  0
VERTEX
  5
371
  8
LAYER_1
 10
19.76591845485144
 20
-13.29873473238334
 30
0.0
  0
VERTEX
  5
372
  8
LAYER_1
 10
19.87370034605776
 20
-13.3862487923562
 30
0.0
  0
VERTEX
  5
373
  8
LAYER_1
 10
19.93336148229641
 20
-13.43963977718417
 30
0.0
  0
VERTEX
  5
374
  8
LAYER_1
 10
19.99156115973479
 20
-13.48213410279137
 30
0.0
  0
VERTEX
  5
375
  8
LAYER_1
 10
20.05263394440981
 20
-13.51494384157927
 30
0.0
  0
VERTEX
  5
376
  8
LAYER_1
 10
20.12091440235838
 20
-13.53928106594932
 30
0.0
  0
VERTEX
  5
377
  8
LAYER_1
 10
20.20073709961743
 20
-13.55635784830299
 30
0.0
  0
VERTEX
  5
378
  8
LAYER_1
 10
20.29643660222386
 20
-13.56738626104175
 30
0.0
  0
VERTEX
  5
379
  8
LAYER_1
 10
20.55280428762653
 20
-13.57614626728041
 30
0.0
  0
VERTEX
  5
37A
  8
LAYER_1
 10
20.95020145686124
 20
-13.5679450154683
 30
0.0
  0
VERTEX
  5
37B
  8
LAYER_1
 10
21.11395526419454
 20
-13.55706350524147
 30
0.0
  0
VERTEX
  5
37C
  8
LAYER_1
 10
21.22500382363796
 20
-13.54310687871708
 30
0.0
  0
VERTEX
  5
37D
  8
LAYER_1
 10
21.90000385046005
 20
-13.43782113152312
 30
0.0
  0
VERTEX
  5
37E
  8
LAYER_1
 10
22.38750386983156
 20
-13.36922099974915
 30
0.0
  0
VERTEX
  5
37F
  8
LAYER_1
 10
41.43750462681055
 20
-14.93837422433248
 30
0.0
  0
VERTEX
  5
380
  8
LAYER_1
 10
41.73750463873148
 20
-15.07175472452025
 30
0.0
  0
SEQEND
  5
8DE
  8
LAYER_1
  0
POLYLINE
  5
74
  8
LAYER_1
 66
     1
 10
0.0
 20
0.0
 30
0.0
 70
     1
  0
VERTEX
  5
381
  8
LAYER_1
 10
-47.02499888837337
 20
0.5983327545807668
 30
0.0
  0
VERTEX
  5
382
  8
LAYER_1
 10
-46.31249886006117
 20
0.5368203056571872
 30
0.0
  0
VERTEX
  5
383
  8
LAYER_1
 10
-42.48749870806932
 20
0.5946606976613396
 30
0.0
  0
VERTEX
  5
384
  8
LAYER_1
 10
-40.23749861866236
 20
1.046589863549855
 30
0.0
  0
VERTEX
  5
385
  8
LAYER_1
 10
-39.69348973613768
 20
1.198774885671071
 30
0.0
  0
VERTEX
  5
386
  8
LAYER_1
 10
-39.20422673925192
 20
1.348151684133424
 30
0.0
  0
VERTEX
  5
387
  8
LAYER_1
 10
-38.67403132370963
 20
1.532087521262606
 30
0.0
  0
VERTEX
  5
388
  8
LAYER_1
 10
-38.12226088407613
 20
1.742309302958916
 30
0.0
  0
VERTEX
  5
389
  8
LAYER_1
 10
-37.56827281491674
 20
1.970543935122654
 30
0.0
  0
VERTEX
  5
38A
  8
LAYER_1
 10
-37.03142451079682
 20
2.20851832365412
 30
0.0
  0
VERTEX
  5
38B
  8
LAYER_1
 10
-36.5310733662817
 20
2.447959374453613
 30
0.0
  0
VERTEX
  5
38C
  8
LAYER_1
 10
-36.08657677593671
 20
2.680593993421432
 30
0.0
  0
VERTEX
  5
38D
  8
LAYER_1
 10
-35.71729213432718
 20
2.898149086457877
 30
0.0
  0
VERTEX
  5
38E
  8
LAYER_1
 10
-35.42725245032904
 20
3.076020987337158
 30
0.0
  0
VERTEX
  5
38F
  8
LAYER_1
 10
-35.28489357492669
 20
3.150003105401993
 30
0.0
  0
VERTEX
  5
390
  8
LAYER_1
 10
-35.24770133594861
 20
3.150003105401993
 30
0.0
  0
VERTEX
  5
391
  8
LAYER_1
 10
-34.70509985660608
 20
3.543314453527941
 30
0.0
  0
VERTEX
  5
392
  8
LAYER_1
 10
-34.01948113156543
 20
4.049564473644509
 30
0.0
  0
VERTEX
  5
393
  8
LAYER_1
 10
-33.87646388586732
 20
4.162503145635128
 30
0.0
  0
VERTEX
  5
394
  8
LAYER_1
 10
-33.30296011731529
 20
4.65990596277409
 30
0.0
  0
VERTEX
  5
395
  8
LAYER_1
 10
-32.78912453746132
 20
5.126001960398172
 30
0.0
  0
VERTEX
  5
396
  8
LAYER_1
 10
-32.30187706634342
 20
5.606668059310332
 30
0.0
  0
VERTEX
  5
397
  8
LAYER_1
 10
-32.07763569146999
 20
5.842775108297746
 30
0.0
  0
VERTEX
  5
398
  8
LAYER_1
 10
-31.87133552767201
 20
6.070896936465147
 30
0.0
  0
VERTEX
  5
399
  8
LAYER_1
 10
-31.68674130291326
 20
6.287157628431856
 30
0.0
  0
VERTEX
  5
39A
  8
LAYER_1
 10
-31.52761774515756
 20
6.487681268817198
 30
0.0
  0
VERTEX
  5
39B
  8
LAYER_1
 10
-31.30018676194074
 20
6.779778066637414
 30
0.0
  0
VERTEX
  5
39C
  8
LAYER_1
 10
-31.15257488613381
 20
6.955707581587831
 30
0.0
  0
VERTEX
  5
39D
  8
LAYER_1
 10
-31.06180388984603
 20
7.048911910252173
 30
0.0
  0
VERTEX
  5
39E
  8
LAYER_1
 10
-30.43893972955997
 20
7.93070762033085
 30
0.0
  0
VERTEX
  5
39F
  8
LAYER_1
 10
-29.8178624352336
 20
8.83255702685948
 30
0.0
  0
VERTEX
  5
3A0
  8
LAYER_1
 10
-29.24244810192615
 20
9.711270071506393
 30
0.0
  0
VERTEX
  5
3A1
  8
LAYER_1
 10
-28.74842758177662
 20
10.51077584155453
 30
0.0
  0
VERTEX
  5
3A2
  8
LAYER_1
 10
-28.54310589292953
 20
10.86330383837998
 30
0.0
  0
VERTEX
  5
3A3
  8
LAYER_1
 10
-28.37153172692404
 20
11.17500342428684
 30
0.0
  0
VERTEX
  5
3A4
  8
LAYER_1
 10
-28.03350536308704
 20
11.81250344961882
 30
0.0
  0
VERTEX
  5
3A5
  8
LAYER_1
 10
-27.92056710092993
 20
11.96250345557928
 30
0.0
  0
VERTEX
  5
3A6
  8
LAYER_1
 10
-27.57765404019138
 20
12.63750348240137
 30
0.0
  0
VERTEX
  5
3A7
  8
LAYER_1
 10
-27.17781877198305
 20
13.44469101447612
 30
0.0
  0
VERTEX
  5
3A8
  8
LAYER_1
 10
-26.69805019115761
 20
14.43750355392694
 30
0.0
  0
VERTEX
  5
3A9
  8
LAYER_1
 10
-26.1613594028624
 20
15.56250359863043
 30
0.0
  0
VERTEX
  5
3AA
  8
LAYER_1
 10
-26.01817872540514
 20
15.92153013715767
 30
0.0
  0
VERTEX
  5
3AB
  8
LAYER_1
 10
-25.95990694613761
 20
16.09763357784394
 30
0.0
  0
VERTEX
  5
3AC
  8
LAYER_1
 10
-25.91729885649445
 20
16.29173135774045
 30
0.0
  0
VERTEX
  5
3AD
  8
LAYER_1
 10
-25.89041511556233
 20
16.49961844358057
 30
0.0
  0
VERTEX
  5
3AE
  8
LAYER_1
 10
-25.8793163824279
 20
16.71708980209769
 30
0.0
  0
VERTEX
  5
3AF
  8
LAYER_1
 10
-25.88406331617783
 20
16.93994040002519
 30
0.0
  0
VERTEX
  5
3B0
  8
LAYER_1
 10
-25.90471657589877
 20
17.16396520409645
 30
0.0
  0
VERTEX
  5
3B1
  8
LAYER_1
 10
-25.9413368206774
 20
17.38495918104485
 30
0.0
  0
VERTEX
  5
3B2
  8
LAYER_1
 10
-25.99398470960035
 20
17.59871729760377
 30
0.0
  0
VERTEX
  5
3B3
  8
LAYER_1
 10
-26.03735194979892
 20
17.76502351998127
 30
0.0
  0
VERTEX
  5
3B4
  8
LAYER_1
 10
-26.06747224117497
 20
17.91526975274275
 30
0.0
  0
VERTEX
  5
3B5
  8
LAYER_1
 10
-26.08161943369389
 20
18.03295576938532
 30
0.0
  0
VERTEX
  5
3B6
  8
LAYER_1
 10
-26.07706737732111
 20
18.10158134340608
 30
0.0
  0
VERTEX
  5
3B7
  8
LAYER_1
 10
-26.06088817360726
 20
18.12313847148825
 30
0.0
  0
VERTEX
  5
3B8
  8
LAYER_1
 10
-26.02846043524796
 20
18.14858870560483
 30
0.0
  0
VERTEX
  5
3B9
  8
LAYER_1
 10
-25.92265620630551
 20
18.20741325441516
 30
0.0
  0
VERTEX
  5
3BA
  8
LAYER_1
 10
-25.77524839391871
 20
18.27054451478493
 30
0.0
  0
VERTEX
  5
3BB
  8
LAYER_1
 10
-25.60183070151253
 20
18.33047201166198
 30
0.0
  0
VERTEX
  5
3BC
  8
LAYER_1
 10
-25.32264309982871
 20
18.41941619679046
 30
0.0
  0
VERTEX
  5
3BD
  8
LAYER_1
 10
-25.10688700978251
 20
18.50223403815532
 30
0.0
  0
VERTEX
  5
3BE
  8
LAYER_1
 10
-25.01875663756168
 20
18.54611408381436
 30
0.0
  0
VERTEX
  5
3BF
  8
LAYER_1
 10
-24.94163717037604
 20
18.59418474819807
 30
0.0
  0
VERTEX
  5
3C0
  8
LAYER_1
 10
-24.87391295060085
 20
18.64835343286163
 30
0.0
  0
VERTEX
  5
3C1
  8
LAYER_1
 10
-24.81396832061139
 20
18.71052753936023
 30
0.0
  0
VERTEX
  5
3C2
  8
LAYER_1
 10
-24.76018762278292
 20
18.78261446924906
 30
0.0
  0
VERTEX
  5
3C3
  8
LAYER_1
 10
-24.71095519949069
 20
18.86652162408331
 30
0.0
  0
VERTEX
  5
3C4
  8
LAYER_1
 10
-24.61967254601603
 20
19.07742621480885
 30
0.0
  0
VERTEX
  5
3C5
  8
LAYER_1
 10
-24.52719509918952
 20
19.35850052397834
 30
0.0
  0
VERTEX
  5
3C6
  8
LAYER_1
 10
-24.42059759801327
 20
19.72500376403332
 30
0.0
  0
VERTEX
  5
3C7
  8
LAYER_1
 10
-24.17230314364856
 20
20.55000379681587
 30
0.0
  0
VERTEX
  5
3C8
  8
LAYER_1
 10
-24.11227810968914
 20
20.78724113968568
 30
0.0
  0
VERTEX
  5
3C9
  8
LAYER_1
 10
-24.07240622851344
 20
21.06584435029647
 30
0.0
  0
VERTEX
  5
3CA
  8
LAYER_1
 10
-24.05074978300517
 20
21.40527729683296
 30
0.0
  0
VERTEX
  5
3CB
  8
LAYER_1
 10
-24.04537105604803
 20
21.82500384747982
 30
0.0
  0
VERTEX
  5
3CC
  8
LAYER_1
 10
-24.05477392110231
 20
22.34102967869281
 30
0.0
  0
VERTEX
  5
3CD
  8
LAYER_1
 10
-24.07182659563204
 20
22.53977831259611
 30
0.0
  0
VERTEX
  5
3CE
  8
LAYER_1
 10
-24.10376519083314
 20
22.73057160084246
 30
0.0
  0
VERTEX
  5
3CF
  8
LAYER_1
 10
-24.15557852620785
 20
22.93707517504076
 30
0.0
  0
VERTEX
  5
3D0
  8
LAYER_1
 10
-24.23225542125841
 20
23.18295466679989
 30
0.0
  0
VERTEX
  5
3D1
  8
LAYER_1
 10
-24.48015516839597
 20
23.88750392943621
 30
0.0
  0
VERTEX
  5
3D2
  8
LAYER_1
 10
-24.91102917822923
 20
25.08750397711992
 30
0.0
  0
VERTEX
  5
3D3
  8
LAYER_1
 10
-25.04723154860402
 20
25.53750399500132
 30
0.0
  0
VERTEX
  5
3D4
  8
LAYER_1
 10
-25.22055133346792
 20
26.13750401884317
 30
0.0
  0
VERTEX
  5
3D5
  8
LAYER_1
 10
-25.42512723314373
 20
26.8875040486455
 30
0.0
  0
VERTEX
  5
3D6
  8
LAYER_1
 10
-25.60455233493073
 20
27.53887930877652
 30
0.0
  0
VERTEX
  5
3D7
  8
LAYER_1
 10
-25.65080417962938
 20
27.7358776542449
 30
0.0
  0
VERTEX
  5
3D8
  8
LAYER_1
 10
-25.66896109081296
 20
27.8685922250921
 30
0.0
  0
VERTEX
  5
3D9
  8
LAYER_1
 10
-25.66770993163697
 20
27.91588428607422
 30
0.0
  0
VERTEX
  5
3DA
  8
LAYER_1
 10
-25.65968222144265
 20
27.95315483265079
 30
0.0
  0
VERTEX
  5
3DB
  8
LAYER_1
 10
-25.64496035435013
 20
27.9824203412384
 30
0.0
  0
VERTEX
  5
3DC
  8
LAYER_1
 10
-25.62362672447957
 20
28.00569728825364
 30
0.0
  0
VERTEX
  5
3DD
  8
LAYER_1
 10
-25.56145375288487
 20
28.04235140323332
 30
0.0
  0
VERTEX
  5
3DE
  8
LAYER_1
 10
-25.4738224596197
 20
28.07924898892252
 30
0.0
  0
VERTEX
  5
3DF
  8
LAYER_1
 10
-25.370226173844
 20
28.13142077519098
 30
0.0
  0
VERTEX
  5
3E0
  8
LAYER_1
 10
-25.26285582423488
 20
28.19951044690852
 30
0.0
  0
VERTEX
  5
3E1
  8
LAYER_1
 10
-25.16438768157711
 20
28.27469468416748
 30
0.0
  0
VERTEX
  5
3E2
  8
LAYER_1
 10
-25.08749801665545
 20
28.34815016706021
 30
0.0
  0
VERTEX
  5
3E3
  8
LAYER_1
 10
-25.03947683440657
 20
28.42211948804564
 30
0.0
  0
VERTEX
  5
3E4
  8
LAYER_1
 10
-25.0011549310784
 20
28.52372563178712
 30
0.0
  0
VERTEX
  5
3E5
  8
LAYER_1
 10
-24.97237955690904
 20
28.65123096652266
 30
0.0
  0
VERTEX
  5
3E6
  8
LAYER_1
 10
-24.9529979621366
 20
28.80289786049025
 30
0.0
  0
VERTEX
  5
3E7
  8
LAYER_1
 10
-24.94285739699919
 20
28.97698868192789
 30
0.0
  0
VERTEX
  5
3E8
  8
LAYER_1
 10
-24.94180511173492
 20
29.17176579907357
 30
0.0
  0
VERTEX
  5
3E9
  8
LAYER_1
 10
-24.94968835658188
 20
29.38549158016527
 30
0.0
  0
VERTEX
  5
3EA
  8
LAYER_1
 10
-24.96635438177818
 20
29.616428393441
 30
0.0
  0
VERTEX
  5
3EB
  8
LAYER_1
 10
-25.02542377417126
 20
30.1229845894965
 30
0.0
  0
VERTEX
  5
3EC
  8
LAYER_1
 10
-25.11779129081899
 20
30.67753333314403
 30
0.0
  0
VERTEX
  5
3ED
  8
LAYER_1
 10
-25.24223493362624
 20
31.26617357028752
 30
0.0
  0
VERTEX
  5
3EE
  8
LAYER_1
 10
-25.39753270449783
 20
31.87500424683094
 30
0.0
  0
VERTEX
  5
3EF
  8
LAYER_1
 10
-25.45770393288366
 20
32.06230496499099
 30
0.0
  0
VERTEX
  5
3F0
  8
LAYER_1
 10
-25.52693267863203
 20
32.22005581506557
 30
0.0
  0
VERTEX
  5
3F1
  8
LAYER_1
 10
-25.60676396283593
 20
32.34966734332102
 30
0.0
  0
VERTEX
  5
3F2
  8
LAYER_1
 10
-25.69874280658835
 20
32.45255009602367
 30
0.0
  0
VERTEX
  5
3F3
  8
LAYER_1
 10
-25.80441423098227
 20
32.53011461943989
 30
0.0
  0
VERTEX
  5
3F4
  8
LAYER_1
 10
-25.92532325711068
 20
32.58377145983599
 30
0.0
  0
VERTEX
  5
3F5
  8
LAYER_1
 10
-26.06301490606656
 20
32.61493116347833
 30
0.0
  0
VERTEX
  5
3F6
  8
LAYER_1
 10
-26.21903419894291
 20
32.62500427663326
 30
0.0
  0
VERTEX
  5
3F7
  8
LAYER_1
 10
-26.35871439931757
 20
32.63174894448387
 30
0.0
  0
VERTEX
  5
3F8
  8
LAYER_1
 10
-26.47125974556438
 20
32.65080255787868
 30
0.0
  0
VERTEX
  5
3F9
  8
LAYER_1
 10
-26.54971814932598
 20
32.68039453158209
 30
0.0
  0
VERTEX
  5
3FA
  8
LAYER_1
 10
-26.57399222016313
 20
32.69858909566341
 30
0.0
  0
VERTEX
  5
3FB
  8
LAYER_1
 10
-26.58713752224497
 20
32.71875428035855
 30
0.0
  0
VERTEX
  5
3FC
  8
LAYER_1
 10
-26.61956925008332
 20
32.81250428408384
 30
0.0
  0
VERTEX
  5
3FD
  8
LAYER_1
 10
-26.91687381329621
 20
35.28750438243151
 30
0.0
  0
VERTEX
  5
3FE
  8
LAYER_1
 10
-27.00886491341547
 20
36.50847656632048
 30
0.0
  0
VERTEX
  5
3FF
  8
LAYER_1
 10
-26.77773354335199
 20
36.67305661849493
 30
0.0
  0
VERTEX
  5
400
  8
LAYER_1
 10
-26.68532134546808
 20
36.74862378664086
 30
0.0
  0
VERTEX
  5
401
  8
LAYER_1
 10
-26.59975630775931
 20
36.83860594512355
 30
0.0
  0
VERTEX
  5
402
  8
LAYER_1
 10
-26.52113300299322
 20
36.94258001250656
 30
0.0
  0
VERTEX
  5
403
  8
LAYER_1
 10
-26.44954600393739
 20
37.06012290735352
 30
0.0
  0
VERTEX
  5
404
  8
LAYER_1
 10
-26.38508988335933
 20
37.19081154822801
 30
0.0
  0
VERTEX
  5
405
  8
LAYER_1
 10
-26.32785921402663
 20
37.33422285369363
 30
0.0
  0
VERTEX
  5
406
  8
LAYER_1
 10
-26.27794856870682
 20
37.48993374231399
 30
0.0
  0
VERTEX
  5
407
  8
LAYER_1
 10
-26.23545252016746
 20
37.65752113265268
 30
0.0
  0
VERTEX
  5
408
  8
LAYER_1
 10
-26.2004656411761
 20
37.8365619432733
 30
0.0
  0
VERTEX
  5
409
  8
LAYER_1
 10
-26.17308250450029
 20
38.02663309273946
 30
0.0
  0
VERTEX
  5
40A
  8
LAYER_1
 10
-26.15339768290758
 20
38.22731149961475
 30
0.0
  0
VERTEX
  5
40B
  8
LAYER_1
 10
-26.14150574916552
 20
38.43817408246277
 30
0.0
  0
VERTEX
  5
40C
  8
LAYER_1
 10
-26.13750127604168
 20
38.65879775984713
 30
0.0
  0
VERTEX
  5
40D
  8
LAYER_1
 10
-26.14147883630359
 20
38.88875945033141
 30
0.0
  0
VERTEX
  5
40E
  8
LAYER_1
 10
-26.15353300271881
 20
39.12763607247923
 30
0.0
  0
VERTEX
  5
40F
  8
LAYER_1
 10
-26.17375834805489
 20
39.37500454485416
 30
0.0
  0
VERTEX
  5
410
  8
LAYER_1
 10
-26.24998784002583
 20
40.1625045761466
 30
0.0
  0
VERTEX
  5
411
  8
LAYER_1
 10
-26.29047725519464
 20
40.40404683119151
 30
0.0
  0
VERTEX
  5
412
  8
LAYER_1
 10
-26.32329738343564
 20
40.53138433409744
 30
0.0
  0
VERTEX
  5
413
  8
LAYER_1
 10
-26.37685832862779
 20
40.65532884541183
 30
0.0
  0
VERTEX
  5
414
  8
LAYER_1
 10
-26.44814713161037
 20
40.77258017987229
 30
0.0
  0
VERTEX
  5
415
  8
LAYER_1
 10
-26.53415083322262
 20
40.87983815221644
 30
0.0
  0
VERTEX
  5
416
  8
LAYER_1
 10
-26.6318564743038
 20
40.97380257718187
 30
0.0
  0
VERTEX
  5
417
  8
LAYER_1
 10
-26.73825109569319
 20
41.05117326950621
 30
0.0
  0
VERTEX
  5
418
  8
LAYER_1
 10
-26.85032173823003
 20
41.10865004392706
 30
0.0
  0
VERTEX
  5
419
  8
LAYER_1
 10
-26.96505544275359
 20
41.14293271518203
 30
0.0
  0
VERTEX
  5
41A
  8
LAYER_1
 10
-27.221070666693
 20
41.19096146070302
 30
0.0
  0
VERTEX
  5
41B
  8
LAYER_1
 10
-27.18037809145574
 20
42.13923307653933
 30
0.0
  0
VERTEX
  5
41C
  8
LAYER_1
 10
-27.12021734338048
 20
43.09885650813619
 30
0.0
  0
VERTEX
  5
41D
  8
LAYER_1
 10
-27.07746256908085
 20
43.61639521518976
 30
0.0
  0
VERTEX
  5
41E
  8
LAYER_1
 10
-27.03271831004335
 20
44.07442078739676
 30
0.0
  0
VERTEX
  5
41F
  8
LAYER_1
 10
-26.96551304693721
 20
44.6423685715549
 30
0.0
  0
VERTEX
  5
420
  8
LAYER_1
 10
-26.93259151556838
 20
44.84081791414654
 30
0.0
  0
VERTEX
  5
421
  8
LAYER_1
 10
-26.89388770911133
 20
45.00409419679569
 30
0.0
  0
VERTEX
  5
422
  8
LAYER_1
 10
-26.84472437115777
 20
45.14857989928923
 30
0.0
  0
VERTEX
  5
423
  8
LAYER_1
 10
-26.78042424529941
 20
45.29065750141402
 30
0.0
  0
VERTEX
  5
424
  8
LAYER_1
 10
-26.58770460423516
 20
45.63311832370471
 30
0.0
  0
VERTEX
  5
425
  8
LAYER_1
 10
-26.4275210822215
 20
45.91855538201258
 30
0.0
  0
VERTEX
  5
426
  8
LAYER_1
 10
-26.24127284682644
 20
46.27305596789955
 30
0.0
  0
VERTEX
  5
427
  8
LAYER_1
 10
-26.05208085072291
 20
46.65148373140316
 30
0.0
  0
VERTEX
  5
428
  8
LAYER_1
 10
-25.88306604658385
 20
47.00870232256094
 30
0.0
  0
VERTEX
  5
429
  8
LAYER_1
 10
-25.51647398856561
 20
47.81250488013029
 30
0.0
  0
VERTEX
  5
42A
  8
LAYER_1
 10
-25.26149393825571
 20
48.41250490397215
 30
0.0
  0
VERTEX
  5
42B
  8
LAYER_1
 10
-24.57809790854787
 20
50.36250498145819
 30
0.0
  0
VERTEX
  5
42C
  8
LAYER_1
 10
-24.5765479524192
 20
50.67087257501413
 30
0.0
  0
VERTEX
  5
42D
  8
LAYER_1
 10
-24.58261121332633
 20
50.77232829212038
 30
0.0
  0
VERTEX
  5
42E
  8
LAYER_1
 10
-24.60127139420997
 20
50.87288567711922
 30
0.0
  0
VERTEX
  5
42F
  8
LAYER_1
 10
-24.63170138732496
 20
50.97176551722632
 30
0.0
  0
VERTEX
  5
430
  8
LAYER_1
 10
-24.67307408492613
 20
51.06818859965735
 30
0.0
  0
VERTEX
  5
431
  8
LAYER_1
 10
-24.72456237926831
 20
51.16137571162794
 30
0.0
  0
VERTEX
  5
432
  8
LAYER_1
 10
-24.78533916260635
 20
51.25054764035374
 30
0.0
  0
VERTEX
  5
433
  8
LAYER_1
 10
-24.85457732719506
 20
51.33492517305042
 30
0.0
  0
VERTEX
  5
434
  8
LAYER_1
 10
-24.93144976528929
 20
51.41372909693362
 30
0.0
  0
VERTEX
  5
435
  8
LAYER_1
 10
-25.01512936914386
 20
51.486180199219
 30
0.0
  0
VERTEX
  5
436
  8
LAYER_1
 10
-25.10478903101361
 20
51.55149926712221
 30
0.0
  0
VERTEX
  5
437
  8
LAYER_1
 10
-25.19960164315336
 20
51.60890708785891
 30
0.0
  0
VERTEX
  5
438
  8
LAYER_1
 10
-25.29874009781797
 20
51.65762444864473
 30
0.0
  0
VERTEX
  5
439
  8
LAYER_1
 10
-25.40137728726225
 20
51.69687213669535
 30
0.0
  0
VERTEX
  5
43A
  8
LAYER_1
 10
-25.50668610374103
 20
51.72587093922641
 30
0.0
  0
VERTEX
  5
43B
  8
LAYER_1
 10
-25.61383943950916
 20
51.74384164345358
 30
0.0
  0
VERTEX
  5
43C
  8
LAYER_1
 10
-25.72201018682146
 20
51.75000503659248
 30
0.0
  0
VERTEX
  5
43D
  8
LAYER_1
 10
-25.88302661584679
 20
51.75697441358013
 30
0.0
  0
VERTEX
  5
43E
  8
LAYER_1
 10
-25.93200838352595
 20
51.76451839345771
 30
0.0
  0
VERTEX
  5
43F
  8
LAYER_1
 10
-25.94999805092812
 20
51.77373057527383
 30
0.0
  0
VERTEX
  5
440
  8
LAYER_1
 10
-25.86797453387772
 20
52.24116214303228
 30
0.0
  0
VERTEX
  5
441
  8
LAYER_1
 10
-25.84010967697387
 20
52.37861394294509
 30
0.0
  0
VERTEX
  5
442
  8
LAYER_1
 10
-25.80879482250931
 20
52.49560357709795
 30
0.0
  0
VERTEX
  5
443
  8
LAYER_1
 10
-25.76902137696778
 20
52.60038688169685
 30
0.0
  0
VERTEX
  5
444
  8
LAYER_1
 10
-25.715780746833
 20
52.70121969294774
 30
0.0
  0
VERTEX
  5
445
  8
LAYER_1
 10
-25.6440643385887
 20
52.80635784705662
 30
0.0
  0
VERTEX
  5
446
  8
LAYER_1
 10
-25.54886355871859
 20
52.92405718022948
 30
0.0
  0
VERTEX
  5
447
  8
LAYER_1
 10
-25.26797451003586
 20
53.23016272859104
 30
0.0
  0
VERTEX
  5
448
  8
LAYER_1
 10
-24.99329208214746
 20
53.52858439598032
 30
0.0
  0
VERTEX
  5
449
  8
LAYER_1
 10
-24.90226204895239
 20
53.63938098243909
 30
0.0
  0
VERTEX
  5
44A
  8
LAYER_1
 10
-24.83676528001592
 20
53.73321282898053
 30
0.0
  0
VERTEX
  5
44B
  8
LAYER_1
 10
-24.79279613315749
 20
53.81656350428457
 30
0.0
  0
VERTEX
  5
44C
  8
LAYER_1
 10
-24.76634896619649
 20
53.89591657703116
 30
0.0
  0
VERTEX
  5
44D
  8
LAYER_1
 10
-24.75341813695232
 20
53.97775561590023
 30
0.0
  0
VERTEX
  5
44E
  8
LAYER_1
 10
-24.7499980032444
 20
54.0685641895717
 30
0.0
  0
VERTEX
  5
44F
  8
LAYER_1
 10
-24.76014499893794
 20
54.22328454084111
 30
0.0
  0
VERTEX
  5
450
  8
LAYER_1
 10
-24.77467405274315
 20
54.2866355139307
 30
0.0
  0
VERTEX
  5
451
  8
LAYER_1
 10
-24.79714708535472
 20
54.34402143522189
 30
0.0
  0
VERTEX
  5
452
  8
LAYER_1
 10
-24.82879430289815
 20
54.39797311713839
 30
0.0
  0
VERTEX
  5
453
  8
LAYER_1
 10
-24.87084591149899
 20
54.45102137210395
 30
0.0
  0
VERTEX
  5
454
  8
LAYER_1
 10
-24.991083126375
 20
54.56453085087719
 30
0.0
  0
VERTEX
  5
455
  8
LAYER_1
 10
-25.2321682495056
 20
54.76739060768372
 30
0.0
  0
VERTEX
  5
456
  8
LAYER_1
 10
-24.98685004847277
 20
55.48444328484902
 30
0.0
  0
VERTEX
  5
457
  8
LAYER_1
 10
-24.78014813101933
 20
56.04634014169022
 30
0.0
  0
VERTEX
  5
458
  8
LAYER_1
 10
-24.53596563340984
 20
56.63181389605796
 30
0.0
  0
VERTEX
  5
459
  8
LAYER_1
 10
-24.25221710466288
 20
57.24484194310168
 30
0.0
  0
VERTEX
  5
45A
  8
LAYER_1
 10
-23.92681709379704
 20
57.88940167797082
 30
0.0
  0
VERTEX
  5
45B
  8
LAYER_1
 10
-23.55768014983092
 20
58.56947049581485
 30
0.0
  0
VERTEX
  5
45C
  8
LAYER_1
 10
-23.14272082178309
 20
59.28902579178321
 30
0.0
  0
VERTEX
  5
45D
  8
LAYER_1
 10
-22.67985365867215
 20
60.05204496102535
 30
0.0
  0
VERTEX
  5
45E
  8
LAYER_1
 10
-22.1669932095167
 20
60.8625053986907
 30
0.0
  0
VERTEX
  5
45F
  8
LAYER_1
 10
-21.92527515051199
 20
61.23750541359186
 30
0.0
  0
VERTEX
  5
460
  8
LAYER_1
 10
-20.74074900546603
 20
63.03750548511744
 30
0.0
  0
VERTEX
  5
461
  8
LAYER_1
 10
-20.64537342090871
 20
63.13661263191383
 30
0.0
  0
VERTEX
  5
462
  8
LAYER_1
 10
-20.60834086971732
 20
63.18388501134221
 30
0.0
  0
VERTEX
  5
463
  8
LAYER_1
 10
-20.57801441431511
 20
63.23933369446215
 30
0.0
  0
VERTEX
  5
464
  8
LAYER_1
 10
-20.55752356607037
 20
63.29605109268649
 30
0.0
  0
VERTEX
  5
465
  8
LAYER_1
 10
-20.54999783635139
 20
63.34712961742804
 30
0.0
  0
VERTEX
  5
466
  8
LAYER_1
 10
-20.54999783635139
 20
63.45853945614587
 30
0.0
  0
VERTEX
  5
467
  8
LAYER_1
 10
-21.09374785795808
 20
63.70754349556955
 30
0.0
  0
VERTEX
  5
468
  8
LAYER_1
 10
-22.23749790340662
 20
64.23519593246002
 30
0.0
  0
VERTEX
  5
469
  8
LAYER_1
 10
-23.21249794214964
 20
64.68678720814512
 30
0.0
  0
VERTEX
  5
46A
  8
LAYER_1
 10
-24.33749798685312
 20
65.2125442845963
 30
0.0
  0
VERTEX
  5
46B
  8
LAYER_1
 10
-25.83749804645777
 20
65.90138091984048
 30
0.0
  0
VERTEX
  5
46C
  8
LAYER_1
 10
-26.89884830220422
 20
66.3908030006238
 30
0.0
  0
VERTEX
  5
46D
  8
LAYER_1
 10
-27.03808067944191
 20
66.45319151453549
 30
0.0
  0
VERTEX
  5
46E
  8
LAYER_1
 10
-27.16804108771982
 20
66.49252814577294
 30
0.0
  0
VERTEX
  5
46F
  8
LAYER_1
 10
-27.30242692823155
 20
66.5064663270639
 30
0.0
  0
VERTEX
  5
470
  8
LAYER_1
 10
-27.45493560217072
 20
66.49265949113612
 30
0.0
  0
VERTEX
  5
471
  8
LAYER_1
 10
-27.63926451073092
 20
66.44876107071735
 30
0.0
  0
VERTEX
  5
472
  8
LAYER_1
 10
-27.86911105510577
 20
66.37242449853534
 30
0.0
  0
VERTEX
  5
473
  8
LAYER_1
 10
-28.52014665607381
 20
66.11305062979253
 30
0.0
  0
VERTEX
  5
474
  8
LAYER_1
 10
-28.58784847416499
 20
66.09031657332636
 30
0.0
  0
VERTEX
  5
475
  8
LAYER_1
 10
-28.60721910329323
 20
66.09096993615282
 30
0.0
  0
VERTEX
  5
476
  8
LAYER_1
 10
-28.61750711942818
 20
66.10111644670405
 30
0.0
  0
VERTEX
  5
477
  8
LAYER_1
 10
-28.61254803357298
 20
66.15432757203614
 30
0.0
  0
VERTEX
  5
478
  8
LAYER_1
 10
-28.57639665830899
 20
66.25882727143318
 30
0.0
  0
VERTEX
  5
479
  8
LAYER_1
 10
-28.53890763166029
 20
66.37717878884644
 30
0.0
  0
VERTEX
  5
47A
  8
LAYER_1
 10
-28.51458136890501
 20
66.49757184506674
 30
0.0
  0
VERTEX
  5
47B
  8
LAYER_1
 10
-28.50317155438843
 20
66.6164039318027
 30
0.0
  0
VERTEX
  5
47C
  8
LAYER_1
 10
-28.50443187245585
 20
66.73007254076296
 30
0.0
  0
VERTEX
  5
47D
  8
LAYER_1
 10
-28.51811600745256
 20
66.83497516365614
 30
0.0
  0
VERTEX
  5
47E
  8
LAYER_1
 10
-28.54397764372386
 20
66.92750929219086
 30
0.0
  0
VERTEX
  5
47F
  8
LAYER_1
 10
-28.58177046561505
 20
67.00407241807576
 30
0.0
  0
VERTEX
  5
480
  8
LAYER_1
 10
-28.63124815747142
 20
67.06106203301948
 30
0.0
  0
VERTEX
  5
481
  8
LAYER_1
 10
-28.76249816268682
 20
67.17036655969994
 30
0.0
  0
VERTEX
  5
482
  8
LAYER_1
 10
-29.66249819844961
 20
67.41928076120308
 30
0.0
  0
VERTEX
  5
483
  8
LAYER_1
 10
-31.53749827295542
 20
67.95485987627978
 30
0.0
  0
VERTEX
  5
484
  8
LAYER_1
 10
-32.51249831169844
 20
68.24152478985334
 30
0.0
  0
VERTEX
  5
485
  8
LAYER_1
 10
-32.77747704743482
 20
68.28855955064188
 30
0.0
  0
VERTEX
  5
486
  8
LAYER_1
 10
-32.88290613564555
 20
68.29581723649503
 30
0.0
  0
VERTEX
  5
487
  8
LAYER_1
 10
-33.02543447795479
 20
68.28805037907145
 30
0.0
  0
VERTEX
  5
488
  8
LAYER_1
 10
-33.19978208305072
 20
68.26627621811869
 30
0.0
  0
VERTEX
  5
489
  8
LAYER_1
 10
-33.40066895962151
 20
68.23151199338429
 30
0.0
  0
VERTEX
  5
48A
  8
LAYER_1
 10
-33.86094056194032
 20
68.12708231156068
 30
0.0
  0
VERTEX
  5
48B
  8
LAYER_1
 10
-34.36400935441662
 20
67.98289925158093
 30
0.0
  0
VERTEX
  5
48C
  8
LAYER_1
 10
-34.39859144979098
 20
67.97490887712434
 30
0.0
  0
VERTEX
  5
48D
  8
LAYER_1
 10
-34.42728872244133
 20
67.97552427199201
 30
0.0
  0
VERTEX
  5
48E
  8
LAYER_1
 10
-34.4507818559255
 20
67.98582253099204
 30
0.0
  0
VERTEX
  5
48F
  8
LAYER_1
 10
-34.46975153380129
 20
68.00688074893247
 30
0.0
  0
VERTEX
  5
490
  8
LAYER_1
 10
-34.49684325695902
 20
68.08558544086696
 30
0.0
  0
VERTEX
  5
491
  8
LAYER_1
 10
-34.51400936037709
 20
68.22025510626008
 30
0.0
  0
VERTEX
  5
492
  8
LAYER_1
 10
-34.5358539283682
 20
68.35388740857331
 30
0.0
  0
VERTEX
  5
493
  8
LAYER_1
 10
-34.57808850696108
 20
68.46608559191385
 30
0.0
  0
VERTEX
  5
494
  8
LAYER_1
 10
-34.64277827809884
 20
68.5608469602652
 30
0.0
  0
VERTEX
  5
495
  8
LAYER_1
 10
-34.73198842372461
 20
68.64216881761084
 30
0.0
  0
VERTEX
  5
496
  8
LAYER_1
 10
-34.92647845528451
 20
68.78673317208552
 30
0.0
  0
VERTEX
  5
497
  8
LAYER_1
 10
-35.89448846991821
 20
69.12583148216885
 30
0.0
  0
VERTEX
  5
498
  8
LAYER_1
 10
-37.91249852627516
 20
69.83675485365421
 30
0.0
  0
VERTEX
  5
499
  8
LAYER_1
 10
-39.09914949736641
 20
70.25207607862012
 30
0.0
  0
VERTEX
  5
49A
  8
LAYER_1
 10
-39.48863953911534
 20
70.38082901478387
 30
0.0
  0
VERTEX
  5
49B
  8
LAYER_1
 10
-39.77394740578213
 20
70.46548995150903
 30
0.0
  0
VERTEX
  5
49C
  8
LAYER_1
 10
-39.97885418795354
 20
70.51244372737625
 30
0.0
  0
VERTEX
  5
49D
  8
LAYER_1
 10
-40.12714097621632
 20
70.52807518096623
 30
0.0
  0
VERTEX
  5
49E
  8
LAYER_1
 10
-40.24258886115722
 20
70.51876915085961
 30
0.0
  0
VERTEX
  5
49F
  8
LAYER_1
 10
-40.34897893336301
 20
70.49091047563704
 30
0.0
  0
VERTEX
  5
4A0
  8
LAYER_1
 10
-40.55601940996185
 20
70.41219795374295
 30
0.0
  0
VERTEX
  5
4A1
  8
LAYER_1
 10
-40.63529024489014
 20
70.37317889208123
 30
0.0
  0
VERTEX
  5
4A2
  8
LAYER_1
 10
-40.68374863639664
 20
70.34094559353508
 30
0.0
  0
VERTEX
  5
4A3
  8
LAYER_1
 10
-40.73158365834034
 20
70.3060232750179
 30
0.0
  0
VERTEX
  5
4A4
  8
LAYER_1
 10
-40.78417306980248
 20
70.28507266879089
 30
0.0
  0
VERTEX
  5
4A5
  8
LAYER_1
 10
-40.84109210845443
 20
70.2780016836737
 30
0.0
  0
VERTEX
  5
4A6
  8
LAYER_1
 10
-40.90191601196756
 20
70.28471822848599
 30
0.0
  0
VERTEX
  5
4A7
  8
LAYER_1
 10
-40.96622001801327
 20
70.30513021204742
 30
0.0
  0
VERTEX
  5
4A8
  8
LAYER_1
 10
-41.03357936426295
 20
70.33914554317766
 30
0.0
  0
VERTEX
  5
4A9
  8
LAYER_1
 10
-41.10356928838797
 20
70.3866721306964
 30
0.0
  0
VERTEX
  5
4AA
  8
LAYER_1
 10
-41.17576502805973
 20
70.44761788342328
 30
0.0
  0
VERTEX
  5
4AB
  8
LAYER_1
 10
-41.34069253430783
 20
70.58510354906926
 30
0.0
  0
VERTEX
  5
4AC
  8
LAYER_1
 10
-41.47499866783619
 20
70.6732627173865
 30
0.0
  0
VERTEX
  5
4AD
  8
LAYER_1
 10
-41.63156117405742
 20
70.75779188811451
 30
0.0
  0
VERTEX
  5
4AE
  8
LAYER_1
 10
-41.84999868273735
 20
70.8865501127481
 30
0.0
  0
VERTEX
  5
4AF
  8
LAYER_1
 10
-42.0278074515366
 20
70.98137627594849
 30
0.0
  0
VERTEX
  5
4B0
  8
LAYER_1
 10
-42.25508829980141
 20
71.08140241939776
 30
0.0
  0
VERTEX
  5
4B1
  8
LAYER_1
 10
-42.51911300312087
 20
71.18252945146673
 30
0.0
  0
VERTEX
  5
4B2
  8
LAYER_1
 10
-42.8071533370841
 20
71.28065828052624
 30
0.0
  0
VERTEX
  5
4B3
  8
LAYER_1
 10
-43.10648107728021
 20
71.37168981494712
 30
0.0
  0
VERTEX
  5
4B4
  8
LAYER_1
 10
-43.4043679992983
 20
71.4515249631002
 30
0.0
  0
VERTEX
  5
4B5
  8
LAYER_1
 10
-43.68808587872749
 20
71.51606463335634
 30
0.0
  0
VERTEX
  5
4B6
  8
LAYER_1
 10
-43.94490649115689
 20
71.56120973408636
 30
0.0
  0
VERTEX
  5
4B7
  8
LAYER_1
 10
-44.24950762039975
 20
71.59263883665513
 30
0.0
  0
VERTEX
  5
4B8
  8
LAYER_1
 10
-44.59622461599443
 20
71.6081278165522
 30
0.0
  0
VERTEX
  5
4B9
  8
LAYER_1
 10
-44.96959606698614
 20
71.60850998115309
 30
0.0
  0
VERTEX
  5
4BA
  8
LAYER_1
 10
-45.35416056242013
 20
71.59461863783329
 30
0.0
  0
VERTEX
  5
4BB
  8
LAYER_1
 10
-45.73445669134158
 20
71.56728709396833
 30
0.0
  0
VERTEX
  5
4BC
  8
LAYER_1
 10
-46.09502304279572
 20
71.52734865693367
 30
0.0
  0
VERTEX
  5
4BD
  8
LAYER_1
 10
-46.42039820582774
 20
71.47563663410483
 30
0.0
  0
VERTEX
  5
4BE
  8
LAYER_1
 10
-46.69512076948288
 20
71.41298433285732
 30
0.0
  0
VERTEX
  5
4BF
  8
LAYER_1
 10
-46.95489586889629
 20
71.33435648635246
 30
0.0
  0
VERTEX
  5
4C0
  8
LAYER_1
 10
-47.21814250418703
 20
71.242399374385
 30
0.0
  0
VERTEX
  5
4C1
  8
LAYER_1
 10
-47.48016889623636
 20
71.13927457222186
 30
0.0
  0
VERTEX
  5
4C2
  8
LAYER_1
 10
-47.73628326592555
 20
71.02714365512989
 30
0.0
  0
VERTEX
  5
4C3
  8
LAYER_1
 10
-47.98179383413586
 20
70.90816819837602
 30
0.0
  0
VERTEX
  5
4C4
  8
LAYER_1
 10
-48.21200882174856
 20
70.78450977722709
 30
0.0
  0
VERTEX
  5
4C5
  8
LAYER_1
 10
-48.42223644964491
 20
70.65832996695
 30
0.0
  0
VERTEX
  5
4C6
  8
LAYER_1
 10
-48.60778493870619
 20
70.53179034281166
 30
0.0
  0
VERTEX
  5
4C7
  8
LAYER_1
 10
-48.82264583836825
 20
70.37968180648954
 30
0.0
  0
VERTEX
  5
4C8
  8
LAYER_1
 10
-48.89814940355767
 20
70.33595377542977
 30
0.0
  0
VERTEX
  5
4C9
  8
LAYER_1
 10
-48.96117291553765
 20
70.31147287110792
 30
0.0
  0
VERTEX
  5
4CA
  8
LAYER_1
 10
-49.01831977672195
 20
70.3045113200268
 30
0.0
  0
VERTEX
  5
4CB
  8
LAYER_1
 10
-49.07619338952429
 20
70.31334134868922
 30
0.0
  0
VERTEX
  5
4CC
  8
LAYER_1
 10
-49.22053447963811
 20
70.37146505125585
 30
0.0
  0
VERTEX
  5
4CD
  8
LAYER_1
 10
-49.39842581791515
 20
70.45004008627654
 30
0.0
  0
VERTEX
  5
4CE
  8
LAYER_1
 10
-49.55685516639389
 20
70.50054561060534
 30
0.0
  0
VERTEX
  5
4CF
  8
LAYER_1
 10
-49.63735847838835
 20
70.5137337960021
 30
0.0
  0
VERTEX
  5
4D0
  8
LAYER_1
 10
-49.72330055364856
 20
70.51805839141602
 30
0.0
  0
VERTEX
  5
4D1
  8
LAYER_1
 10
-49.81811614574629
 20
70.51290399274384
 30
0.0
  0
VERTEX
  5
4D2
  8
LAYER_1
 10
-49.92524000825333
 20
70.49765519588229
 30
0.0
  0
VERTEX
  5
4D3
  8
LAYER_1
 10
-50.19015155878242
 20
70.43441279117789
 30
0.0
  0
VERTEX
  5
4D4
  8
LAYER_1
 10
-50.54551323381004
 20
70.32340794447654
 30
0.0
  0
VERTEX
  5
4D5
  8
LAYER_1
 10
-51.63749907165766
 20
69.93841799377799
 30
0.0
  0
VERTEX
  5
4D6
  8
LAYER_1
 10
-52.68749911338091
 20
69.5672487128156
 30
0.0
  0
VERTEX
  5
4D7
  8
LAYER_1
 10
-52.98749912530184
 20
69.46559117598991
 30
0.0
  0
VERTEX
  5
4D8
  8
LAYER_1
 10
-54.93749920278788
 20
68.77102729224401
 30
0.0
  0
VERTEX
  5
4D9
  8
LAYER_1
 10
-55.12499921023846
 20
68.63431587769006
 30
0.0
  0
VERTEX
  5
4DA
  8
LAYER_1
 10
-55.21047982004806
 20
68.55668220944852
 30
0.0
  0
VERTEX
  5
4DB
  8
LAYER_1
 10
-55.27310412754446
 20
68.463823526262
 30
0.0
  0
VERTEX
  5
4DC
  8
LAYER_1
 10
-55.31442323619748
 20
68.35269582593205
 30
0.0
  0
VERTEX
  5
4DD
  8
LAYER_1
 10
-55.33598824947699
 20
68.2202551062602
 30
0.0
  0
VERTEX
  5
4DE
  8
LAYER_1
 10
-55.3531543528952
 20
68.08558544086729
 30
0.0
  0
VERTEX
  5
4DF
  8
LAYER_1
 10
-55.38024607605303
 20
68.00688074893282
 30
0.0
  0
VERTEX
  5
4E0
  8
LAYER_1
 10
-55.39921575392882
 20
67.98582253099232
 30
0.0
  0
VERTEX
  5
4E1
  8
LAYER_1
 10
-55.42270888741295
 20
67.97552427199224
 30
0.0
  0
VERTEX
  5
4E2
  8
LAYER_1
 10
-55.48598825543746
 20
67.98289925158105
 30
0.0
  0
VERTEX
  5
4E3
  8
LAYER_1
 10
-55.98905704790923
 20
68.12708231155908
 30
0.0
  0
VERTEX
  5
4E4
  8
LAYER_1
 10
-56.44932865022943
 20
68.23151199338265
 30
0.0
  0
VERTEX
  5
4E5
  8
LAYER_1
 10
-56.65021552680174
 20
68.26627621811741
 30
0.0
  0
VERTEX
  5
4E6
  8
LAYER_1
 10
-56.82456313189903
 20
68.28805037907064
 30
0.0
  0
VERTEX
  5
4E7
  8
LAYER_1
 10
-56.9670914742089
 20
68.29581723649467
 30
0.0
  0
VERTEX
  5
4E8
  8
LAYER_1
 10
-57.07252056241898
 20
68.28855955064188
 30
0.0
  0
VERTEX
  5
4E9
  8
LAYER_1
 10
-57.33749929815531
 20
68.24152478985334
 30
0.0
  0
VERTEX
  5
4EA
  8
LAYER_1
 10
-58.31249933689833
 20
67.95485987627978
 30
0.0
  0
VERTEX
  5
4EB
  8
LAYER_1
 10
-60.18749941140413
 20
67.41928076120308
 30
0.0
  0
VERTEX
  5
4EC
  8
LAYER_1
 10
-61.08749944716692
 20
67.17036655969994
 30
0.0
  0
VERTEX
  5
4ED
  8
LAYER_1
 10
-61.21874945238233
 20
67.06106203301948
 30
0.0
  0
VERTEX
  5
4EE
  8
LAYER_1
 10
-61.26822714423869
 20
67.00407241807578
 30
0.0
  0
VERTEX
  5
4EF
  8
LAYER_1
 10
-61.30601996612989
 20
66.92750929219088
 30
0.0
  0
VERTEX
  5
4F0
  8
LAYER_1
 10
-61.3318816024012
 20
66.83497516365617
 30
0.0
  0
VERTEX
  5
4F1
  8
LAYER_1
 10
-61.34556573739791
 20
66.73007254076298
 30
0.0
  0
VERTEX
  5
4F2
  8
LAYER_1
 10
-61.34682605546532
 20
66.61640393180272
 30
0.0
  0
VERTEX
  5
4F3
  8
LAYER_1
 10
-61.33541624094874
 20
66.49757184506674
 30
0.0
  0
VERTEX
  5
4F4
  8
LAYER_1
 10
-61.31108997819345
 20
66.37717878884644
 30
0.0
  0
VERTEX
  5
4F5
  8
LAYER_1
 10
-61.27360095154476
 20
66.25882727143318
 30
0.0
  0
VERTEX
  5
4F6
  8
LAYER_1
 10
-61.23744957628077
 20
66.15432757203614
 30
0.0
  0
VERTEX
  5
4F7
  8
LAYER_1
 10
-61.23249049042557
 20
66.10111644670405
 30
0.0
  0
VERTEX
  5
4F8
  8
LAYER_1
 10
-61.24277850656052
 20
66.09096993615282
 30
0.0
  0
VERTEX
  5
4F9
  8
LAYER_1
 10
-61.26214913568876
 20
66.09031657332636
 30
0.0
  0
VERTEX
  5
4FA
  8
LAYER_1
 10
-61.32985095377993
 20
66.11305062979253
 30
0.0
  0
VERTEX
  5
4FB
  8
LAYER_1
 10
-61.70857153328312
 20
66.26838889050993
 30
0.0
  0
VERTEX
  5
4FC
  8
LAYER_1
 10
-62.00716486209193
 20
66.38235597121323
 30
0.0
  0
VERTEX
  5
4FD
  8
LAYER_1
 10
-62.24368434020074
 20
66.45688793652025
 30
0.0
  0
VERTEX
  5
4FE
  8
LAYER_1
 10
-62.43618336760389
 20
66.49392085104881
 30
0.0
  0
VERTEX
  5
4FF
  8
LAYER_1
 10
-62.52156689978907
 20
66.49898018446424
 30
0.0
  0
VERTEX
  5
500
  8
LAYER_1
 10
-62.60271534429572
 20
66.49539077941674
 30
0.0
  0
VERTEX
  5
501
  8
LAYER_1
 10
-62.68188537612313
 20
66.48339464398354
 30
0.0
  0
VERTEX
  5
502
  8
LAYER_1
 10
-62.7613336702706
 20
66.46323378624186
 30
0.0
  0
VERTEX
  5
503
  8
LAYER_1
 10
-62.93009174552286
 20
66.399385936142
 30
0.0
  0
VERTEX
  5
504
  8
LAYER_1
 10
-63.12704297004687
 20
66.30578329373498
 30
0.0
  0
VERTEX
  5
505
  8
LAYER_1
 10
-63.46548320758433
 20
66.14279655164279
 30
0.0
  0
VERTEX
  5
506
  8
LAYER_1
 10
-63.62684232380256
 20
66.07500560581684
 30
0.0
  0
VERTEX
  5
507
  8
LAYER_1
 10
-63.66209821726315
 20
66.07500560581684
 30
0.0
  0
VERTEX
  5
508
  8
LAYER_1
 10
-64.47479891566154
 20
65.69365981637478
 30
0.0
  0
VERTEX
  5
509
  8
LAYER_1
 10
-65.66249962896109
 20
65.13850169613909
 30
0.0
  0
VERTEX
  5
50A
  8
LAYER_1
 10
-66.59999966621399
 20
64.70228971500345
 30
0.0
  0
VERTEX
  5
50B
  8
LAYER_1
 10
-68.75624975189567
 20
63.70768849482727
 30
0.0
  0
VERTEX
  5
50C
  8
LAYER_1
 10
-69.29999977350235
 20
63.45853945614596
 30
0.0
  0
VERTEX
  5
50D
  8
LAYER_1
 10
-69.29999977350235
 20
63.3094083831906
 30
0.0
  0
VERTEX
  5
50E
  8
LAYER_1
 10
-67.87499971687794
 20
61.20607765946096
 30
0.0
  0
VERTEX
  5
50F
  8
LAYER_1
 10
-67.87499971687794
 20
61.13448663979386
 30
0.0
  0
VERTEX
  5
510
  8
LAYER_1
 10
-67.55624970421195
 20
60.65662354051852
 30
0.0
  0
VERTEX
  5
511
  8
LAYER_1
 10
-67.14659682107113
 20
60.03313290059543
 30
0.0
  0
VERTEX
  5
512
  8
LAYER_1
 10
-67.0556939505963
 20
59.88750535994768
 30
0.0
  0
VERTEX
  5
513
  8
LAYER_1
 10
-66.57505092243207
 20
59.06250532716513
 30
0.0
  0
VERTEX
  5
514
  8
LAYER_1
 10
-66.25645708901965
 20
58.50132479558371
 30
0.0
  0
VERTEX
  5
515
  8
LAYER_1
 10
-65.95485348974512
 20
57.94179255219314
 30
0.0
  0
VERTEX
  5
516
  8
LAYER_1
 10
-65.67426394298333
 20
57.39253319553686
 30
0.0
  0
VERTEX
  5
517
  8
LAYER_1
 10
-65.41871226710916
 20
56.86217132415837
 30
0.0
  0
VERTEX
  5
518
  8
LAYER_1
 10
-65.19222228049749
 20
56.35933153660112
 30
0.0
  0
VERTEX
  5
519
  8
LAYER_1
 10
-64.99881780152316
 20
55.89263843140859
 30
0.0
  0
VERTEX
  5
51A
  8
LAYER_1
 10
-64.84252264856106
 20
55.47071660712425
 30
0.0
  0
VERTEX
  5
51B
  8
LAYER_1
 10
-64.72736063998605
 20
55.10219066229158
 30
0.0
  0
VERTEX
  5
51C
  8
LAYER_1
 10
-64.67598228950368
 20
54.89931695361055
 30
0.0
  0
VERTEX
  5
51D
  8
LAYER_1
 10
-64.66549137227202
 20
54.83068345786976
 30
0.0
  0
VERTEX
  5
51E
  8
LAYER_1
 10
-64.66595007711149
 20
54.77769680973856
 30
0.0
  0
VERTEX
  5
51F
  8
LAYER_1
 10
-64.67797149157069
 20
54.73569046562431
 30
0.0
  0
VERTEX
  5
520
  8
LAYER_1
 10
-64.7021687031982
 20
54.69999788193433
 30
0.0
  0
VERTEX
  5
521
  8
LAYER_1
 10
-64.78954286815254
 20
54.62888782145654
 30
0.0
  0
VERTEX
  5
522
  8
LAYER_1
 10
-64.86117297404493
 20
54.56762191488686
 30
0.0
  0
VERTEX
  5
523
  8
LAYER_1
 10
-64.93695728830323
 20
54.48433346005135
 30
0.0
  0
VERTEX
  5
524
  8
LAYER_1
 10
-65.00786216569395
 20
54.38996330948225
 30
0.0
  0
VERTEX
  5
525
  8
LAYER_1
 10
-65.06485396098356
 20
54.29545231571183
 30
0.0
  0
VERTEX
  5
526
  8
LAYER_1
 10
-65.12243675104781
 20
54.16996411503405
 30
0.0
  0
VERTEX
  5
527
  8
LAYER_1
 10
-65.13648532650416
 20
54.11917302394885
 30
0.0
  0
VERTEX
  5
528
  8
LAYER_1
 10
-65.14061389783768
 20
54.07123418764058
 30
0.0
  0
VERTEX
  5
529
  8
LAYER_1
 10
-65.13475387174418
 20
54.0223102925651
 30
0.0
  0
VERTEX
  5
52A
  8
LAYER_1
 10
-65.11883665491942
 20
53.96856402517827
 30
0.0
  0
VERTEX
  5
52B
  8
LAYER_1
 10
-65.05655627585922
 20
53.83125511929393
 30
0.0
  0
VERTEX
  5
52C
  8
LAYER_1
 10
-64.97461534697484
 20
53.70110374693468
 30
0.0
  0
VERTEX
  5
52D
  8
LAYER_1
 10
-64.84191358024782
 20
53.5269191697007
 30
0.0
  0
VERTEX
  5
52E
  8
LAYER_1
 10
-64.67679200274232
 20
53.33146506037156
 30
0.0
  0
VERTEX
  5
52F
  8
LAYER_1
 10
-64.49759164152249
 20
53.13750509172678
 30
0.0
  0
VERTEX
  5
530
  8
LAYER_1
 10
-64.26345950477133
 20
52.88480262340328
 30
0.0
  0
VERTEX
  5
531
  8
LAYER_1
 10
-64.18261063411971
 20
52.7830038476595
 30
0.0
  0
VERTEX
  5
532
  8
LAYER_1
 10
-64.12057065204615
 20
52.68833824555371
 30
0.0
  0
VERTEX
  5
533
  8
LAYER_1
 10
-64.07333762612228
 20
52.59387946810539
 30
0.0
  0
VERTEX
  5
534
  8
LAYER_1
 10
-64.03690962391971
 20
52.49270116633405
 30
0.0
  0
VERTEX
  5
535
  8
LAYER_1
 10
-63.98046096096478
 20
52.24248059390028
 30
0.0
  0
VERTEX
  5
536
  8
LAYER_1
 10
-63.89999955892563
 20
51.77373057527383
 30
0.0
  0
VERTEX
  5
537
  8
LAYER_1
 10
-63.9179892263278
 20
51.76451839345771
 30
0.0
  0
VERTEX
  5
538
  8
LAYER_1
 10
-63.96697099400696
 20
51.75697441358013
 30
0.0
  0
VERTEX
  5
539
  8
LAYER_1
 10
-64.12798742303228
 20
51.75000503659248
 30
0.0
  0
VERTEX
  5
53A
  8
LAYER_1
 10
-64.25052935795483
 20
51.73877882399803
 30
0.0
  0
VERTEX
  5
53B
  8
LAYER_1
 10
-64.38268951070393
 20
51.70690686254286
 30
0.0
  0
VERTEX
  5
53C
  8
LAYER_1
 10
-64.51939735434175
 20
51.65709916671918
 30
0.0
  0
VERTEX
  5
53D
  8
LAYER_1
 10
-64.65558236193047
 20
51.59206575101924
 30
0.0
  0
VERTEX
  5
53E
  8
LAYER_1
 10
-64.78617400653226
 20
51.51451662993527
 30
0.0
  0
VERTEX
  5
53F
  8
LAYER_1
 10
-64.9061017612093
 20
51.42716181795952
 30
0.0
  0
VERTEX
  5
540
  8
LAYER_1
 10
-65.01029509902375
 20
51.33271132958422
 30
0.0
  0
VERTEX
  5
541
  8
LAYER_1
 10
-65.09368349303779
 20
51.23387517930161
 30
0.0
  0
VERTEX
  5
542
  8
LAYER_1
 10
-65.16199417235887
 20
51.11629222172784
 30
0.0
  0
VERTEX
  5
543
  8
LAYER_1
 10
-65.21085158448754
 20
50.9828061961476
 30
0.0
  0
VERTEX
  5
544
  8
LAYER_1
 10
-65.24020398077434
 20
50.83360414720871
 30
0.0
  0
VERTEX
  5
545
  8
LAYER_1
 10
-65.24999961256981
 20
50.668873119559
 30
0.0
  0
VERTEX
  5
546
  8
LAYER_1
 10
-65.24999961256981
 20
50.32339680666777
 30
0.0
  0
VERTEX
  5
547
  8
LAYER_1
 10
-64.95092691835102
 20
49.45605338724282
 30
0.0
  0
VERTEX
  5
548
  8
LAYER_1
 10
-64.75312968849089
 20
48.89809361810816
 30
0.0
  0
VERTEX
  5
549
  8
LAYER_1
 10
-64.55558975962248
 20
48.37335155512672
 30
0.0
  0
VERTEX
  5
54A
  8
LAYER_1
 10
-64.35574022941958
 20
47.87606887304419
 30
0.0
  0
VERTEX
  5
54B
  8
LAYER_1
 10
-64.15101419555594
 20
47.40048724660621
 30
0.0
  0
VERTEX
  5
54C
  8
LAYER_1
 10
-63.93884475570536
 20
46.94084835055848
 30
0.0
  0
VERTEX
  5
54D
  8
LAYER_1
 10
-63.71666500754159
 20
46.49139385964666
 30
0.0
  0
VERTEX
  5
54E
  8
LAYER_1
 10
-63.48190804873842
 20
46.04636544861642
 30
0.0
  0
VERTEX
  5
54F
  8
LAYER_1
 10
-63.2320069769696
 20
45.60000479221344
 30
0.0
  0
VERTEX
  5
550
  8
LAYER_1
 10
-63.0453393449612
 20
45.26461415388621
 30
0.0
  0
VERTEX
  5
551
  8
LAYER_1
 10
-62.92985281086586
 20
45.0375047698617
 30
0.0
  0
VERTEX
  5
552
  8
LAYER_1
 10
-62.8650558464965
 20
44.88750476390123
 30
0.0
  0
VERTEX
  5
553
  8
LAYER_1
 10
-62.78209317054759
 20
43.95000472664833
 30
0.0
  0
VERTEX
  5
554
  8
LAYER_1
 10
-62.70940962960488
 20
43.02140704096082
 30
0.0
  0
VERTEX
  5
555
  8
LAYER_1
 10
-62.65116061867089
 20
42.10531052981197
 30
0.0
  0
VERTEX
  5
556
  8
LAYER_1
 10
-62.6031907427431
 20
41.19811637022852
 30
0.0
  0
VERTEX
  5
557
  8
LAYER_1
 10
-62.85423954441173
 20
41.14790660989479
 30
0.0
  0
VERTEX
  5
558
  8
LAYER_1
 10
-62.97333207598786
 20
41.11515218938804
 30
0.0
  0
VERTEX
  5
559
  8
LAYER_1
 10
-63.08437493870604
 20
41.06669088552725
 30
0.0
  0
VERTEX
  5
55A
  8
LAYER_1
 10
-63.18627974963441
 20
41.00357289178493
 30
0.0
  0
VERTEX
  5
55B
  8
LAYER_1
 10
-63.27795812584104
 20
40.92684840163358
 30
0.0
  0
VERTEX
  5
55C
  8
LAYER_1
 10
-63.35832168439405
 20
40.83756760854573
 30
0.0
  0
VERTEX
  5
55D
  8
LAYER_1
 10
-63.42628204236154
 20
40.73678070599387
 30
0.0
  0
VERTEX
  5
55E
  8
LAYER_1
 10
-63.48075081681161
 20
40.62553788745051
 30
0.0
  0
VERTEX
  5
55F
  8
LAYER_1
 10
-63.52063962481235
 20
40.50488934638815
 30
0.0
  0
VERTEX
  5
560
  8
LAYER_1
 10
-63.5895942748425
 20
40.23750457912683
 30
0.0
  0
VERTEX
  5
561
  8
LAYER_1
 10
-63.67305003151782
 20
39.41250454634428
 30
0.0
  0
VERTEX
  5
562
  8
LAYER_1
 10
-63.6944100222258
 20
39.16337766507743
 30
0.0
  0
VERTEX
  5
563
  8
LAYER_1
 10
-63.70737729528949
 20
38.92231568162462
 30
0.0
  0
VERTEX
  5
564
  8
LAYER_1
 10
-63.71206056266382
 20
38.68981173644771
 30
0.0
  0
VERTEX
  5
565
  8
LAYER_1
 10
-63.70856853630375
 20
38.46635897000852
 30
0.0
  0
VERTEX
  5
566
  8
LAYER_1
 10
-63.69700992816419
 20
38.25245052276888
 30
0.0
  0
VERTEX
  5
567
  8
LAYER_1
 10
-63.67749345020006
 20
38.04857953519063
 30
0.0
  0
VERTEX
  5
568
  8
LAYER_1
 10
-63.65012781436631
 20
37.85523914773559
 30
0.0
  0
VERTEX
  5
569
  8
LAYER_1
 10
-63.61502173261786
 20
37.6729225008656
 30
0.0
  0
VERTEX
  5
56A
  8
LAYER_1
 10
-63.57228391690966
 20
37.50212273504249
 30
0.0
  0
VERTEX
  5
56B
  8
LAYER_1
 10
-63.52202307919663
 20
37.34333299072809
 30
0.0
  0
VERTEX
  5
56C
  8
LAYER_1
 10
-63.46434793143371
 20
37.19704640838425
 30
0.0
  0
VERTEX
  5
56D
  8
LAYER_1
 10
-63.39936718557582
 20
37.06375612847279
 30
0.0
  0
VERTEX
  5
56E
  8
LAYER_1
 10
-63.32718955357791
 20
36.94395529145554
 30
0.0
  0
VERTEX
  5
56F
  8
LAYER_1
 10
-63.24792374739489
 20
36.83813703779433
 30
0.0
  0
VERTEX
  5
570
  8
LAYER_1
 10
-63.16167847898171
 20
36.74679450795099
 30
0.0
  0
VERTEX
  5
571
  8
LAYER_1
 10
-63.06856246029331
 20
36.67042084238737
 30
0.0
  0
VERTEX
  5
572
  8
LAYER_1
 10
-62.95959820535661
 20
36.58052478741413
 30
0.0
  0
VERTEX
  5
573
  8
LAYER_1
 10
-62.9214767425406
 20
36.53576853987659
 30
0.0
  0
VERTEX
  5
574
  8
LAYER_1
 10
-62.89277983756675
 20
36.48810399150659
 30
0.0
  0
VERTEX
  5
575
  8
LAYER_1
 10
-62.87239557649053
 20
36.43525402670528
 30
0.0
  0
VERTEX
  5
576
  8
LAYER_1
 10
-62.85921204536743
 20
36.37494152987378
 30
0.0
  0
VERTEX
  5
577
  8
LAYER_1
 10
-62.84999951720238
 20
36.22282047772477
 30
0.0
  0
VERTEX
  5
578
  8
LAYER_1
 10
-62.84999951720238
 20
35.93085065584579
 30
0.0
  0
VERTEX
  5
579
  8
LAYER_1
 10
-63.15029190138482
 20
33.33750430494547
 30
0.0
  0
VERTEX
  5
57A
  8
LAYER_1
 10
-63.26614403882751
 20
32.66250427812338
 30
0.0
  0
VERTEX
  5
57B
  8
LAYER_1
 10
-63.65185024372364
 20
32.62350877623597
 30
0.0
  0
VERTEX
  5
57C
  8
LAYER_1
 10
-63.81394660398872
 20
32.59797944044222
 30
0.0
  0
VERTEX
  5
57D
  8
LAYER_1
 10
-63.96757128835111
 20
32.5574556283556
 30
0.0
  0
VERTEX
  5
57E
  8
LAYER_1
 10
-64.0961734440699
 20
32.50725761220504
 30
0.0
  0
VERTEX
  5
57F
  8
LAYER_1
 10
-64.18320221840418
 20
32.45270566421945
 30
0.0
  0
VERTEX
  5
580
  8
LAYER_1
 10
-64.24035397080935
 20
32.37687591957301
 30
0.0
  0
VERTEX
  5
581
  8
LAYER_1
 10
-64.3020940564146
 20
32.25203993560725
 30
0.0
  0
VERTEX
  5
582
  8
LAYER_1
 10
-64.36714148800928
 20
32.08440056625193
 30
0.0
  0
VERTEX
  5
583
  8
LAYER_1
 10
-64.43421527838274
 20
31.88016066543684
 30
0.0
  0
VERTEX
  5
584
  8
LAYER_1
 10
-64.56931798662329
 20
31.38669068514643
 30
0.0
  0
VERTEX
  5
585
  8
LAYER_1
 10
-64.69715428345096
 20
30.82125282617424
 30
0.0
  0
VERTEX
  5
586
  8
LAYER_1
 10
-64.80747627118048
 20
30.23346991995845
 30
0.0
  0
VERTEX
  5
587
  8
LAYER_1
 10
-64.89003605212656
 20
29.67296479793728
 30
0.0
  0
VERTEX
  5
588
  8
LAYER_1
 10
-64.91770264702916
 20
29.41844854082412
 30
0.0
  0
VERTEX
  5
589
  8
LAYER_1
 10
-64.9345857286039
 20
29.18936029154894
 30
0.0
  0
VERTEX
  5
58A
  8
LAYER_1
 10
-64.93940430964017
 20
28.99190290404152
 30
0.0
  0
VERTEX
  5
58B
  8
LAYER_1
 10
-64.93087740292725
 20
28.83227923223164
 30
0.0
  0
VERTEX
  5
58C
  8
LAYER_1
 10
-64.90888489408452
 20
28.69633464855466
 30
0.0
  0
VERTEX
  5
58D
  8
LAYER_1
 10
-64.87472412556798
 20
28.57418228068478
 30
0.0
  0
VERTEX
  5
58E
  8
LAYER_1
 10
-64.82771561682253
 20
28.46489970689892
 30
0.0
  0
VERTEX
  5
58F
  8
LAYER_1
 10
-64.76717988729312
 20
28.36756450547401
 30
0.0
  0
VERTEX
  5
590
  8
LAYER_1
 10
-64.69243745642466
 20
28.28125425468699
 30
0.0
  0
VERTEX
  5
591
  8
LAYER_1
 10
-64.60280884366205
 20
28.20504653281478
 30
0.0
  0
VERTEX
  5
592
  8
LAYER_1
 10
-64.4976145684502
 20
28.13801891813431
 30
0.0
  0
VERTEX
  5
593
  8
LAYER_1
 10
-64.37617515023405
 20
28.07924898892252
 30
0.0
  0
VERTEX
  5
594
  8
LAYER_1
 10
-64.24852594583044
 20
28.01813294638693
 30
0.0
  0
VERTEX
  5
595
  8
LAYER_1
 10
-64.2095947553272
 20
27.98910704712354
 30
0.0
  0
VERTEX
  5
596
  8
LAYER_1
 10
-64.1851156107045
 20
27.95690427626598
 30
0.0
  0
VERTEX
  5
597
  8
LAYER_1
 10
-64.17348084052338
 20
27.91837591911643
 30
0.0
  0
VERTEX
  5
598
  8
LAYER_1
 10
-64.17308277334496
 20
27.87037326097707
 30
0.0
  0
VERTEX
  5
599
  8
LAYER_1
 10
-64.1995660622405
 20
27.7333501829376
 30
0.0
  0
VERTEX
  5
59A
  8
LAYER_1
 10
-64.25928141125074
 20
27.48750407248735
 30
0.0
  0
VERTEX
  5
59B
  8
LAYER_1
 10
-64.49143417163928
 20
26.60392491045954
 30
0.0
  0
VERTEX
  5
59C
  8
LAYER_1
 10
-64.67434904343017
 20
25.9424813501851
 30
0.0
  0
VERTEX
  5
59D
  8
LAYER_1
 10
-64.87764491722618
 20
25.27940617736105
 30
0.0
  0
VERTEX
  5
59E
  8
LAYER_1
 10
-65.11525833283301
 20
24.57136012471283
 30
0.0
  0
VERTEX
  5
59F
  8
LAYER_1
 10
-65.40112583005639
 20
23.77500392496586
 30
0.0
  0
VERTEX
  5
5A0
  8
LAYER_1
 10
-65.58498731259684
 20
23.24939806617253
 30
0.0
  0
VERTEX
  5
5A1
  8
LAYER_1
 10
-65.65823912572957
 20
23.01367171012231
 30
0.0
  0
VERTEX
  5
5A2
  8
LAYER_1
 10
-65.71918137314671
 20
22.79189785694715
 30
0.0
  0
VERTEX
  5
5A3
  8
LAYER_1
 10
-65.76792134463037
 20
22.5810025971301
 30
0.0
  0
VERTEX
  5
5A4
  8
LAYER_1
 10
-65.80456632996258
 20
22.37791202115423
 30
0.0
  0
VERTEX
  5
5A5
  8
LAYER_1
 10
-65.82922361892543
 20
22.1795522195026
 30
0.0
  0
VERTEX
  5
5A6
  8
LAYER_1
 10
-65.84200050130096
 20
21.98284928265828
 30
0.0
  0
VERTEX
  5
5A7
  8
LAYER_1
 10
-65.84300426687128
 20
21.78472930110433
 30
0.0
  0
VERTEX
  5
5A8
  8
LAYER_1
 10
-65.83234220541843
 20
21.58211836532382
 30
0.0
  0
VERTEX
  5
5A9
  8
LAYER_1
 10
-65.81012160672446
 20
21.37194256579981
 30
0.0
  0
VERTEX
  5
5AA
  8
LAYER_1
 10
-65.7764497605715
 20
21.15112799301536
 30
0.0
  0
VERTEX
  5
5AB
  8
LAYER_1
 10
-65.67518148501671
 20
20.66528688959741
 30
0.0
  0
VERTEX
  5
5AC
  8
LAYER_1
 10
-65.52939569701063
 20
20.10000377893448
 30
0.0
  0
VERTEX
  5
5AD
  8
LAYER_1
 10
-65.39601868445246
 20
19.62084883571427
 30
0.0
  0
VERTEX
  5
5AE
  8
LAYER_1
 10
-65.28481318645635
 20
19.24995426702862
 30
0.0
  0
VERTEX
  5
5AF
  8
LAYER_1
 10
-65.18732555245141
 20
18.97212691043266
 30
0.0
  0
VERTEX
  5
5B0
  8
LAYER_1
 10
-65.09510213186671
 20
18.77217360348151
 30
0.0
  0
VERTEX
  5
5B1
  8
LAYER_1
 10
-65.04832273580352
 20
18.69665185535872
 30
0.0
  0
VERTEX
  5
5B2
  8
LAYER_1
 10
-64.99968927413131
 20
18.63490118373031
 30
0.0
  0
VERTEX
  5
5B3
  8
LAYER_1
 10
-64.94814504052869
 20
18.58502244329066
 30
0.0
  0
VERTEX
  5
5B4
  8
LAYER_1
 10
-64.89263332867432
 20
18.54511648873417
 30
0.0
  0
VERTEX
  5
5B5
  8
LAYER_1
 10
-64.83209743224681
 20
18.51328417475522
 30
0.0
  0
VERTEX
  5
5B6
  8
LAYER_1
 10
-64.76548064492479
 20
18.48762635604822
 30
0.0
  0
VERTEX
  5
5B7
  8
LAYER_1
 10
-64.60977757231178
 20
18.44723762322759
 30
0.0
  0
VERTEX
  5
5B8
  8
LAYER_1
 10
-64.24579992481523
 20
18.35639499073509
 30
0.0
  0
VERTEX
  5
5B9
  8
LAYER_1
 10
-64.09853287923868
 20
18.30890057839809
 30
0.0
  0
VERTEX
  5
5BA
  8
LAYER_1
 10
-63.97576648977301
 20
18.26061990780423
 30
0.0
  0
VERTEX
  5
5BB
  8
LAYER_1
 10
-63.87851535941552
 20
18.21199983330625
 30
0.0
  0
VERTEX
  5
5BC
  8
LAYER_1
 10
-63.80779409116353
 20
18.16348720925689
 30
0.0
  0
VERTEX
  5
5BD
  8
LAYER_1
 10
-63.76461728801431
 20
18.11552889000886
 30
0.0
  0
VERTEX
  5
5BE
  8
LAYER_1
 10
-63.74999955296516
 20
18.06857172991492
 30
0.0
  0
VERTEX
  5
5BF
  8
LAYER_1
 10
-63.75881244862511
 20
17.99303253488286
 30
0.0
  0
VERTEX
  5
5C0
  8
LAYER_1
 10
-63.78280795661011
 20
17.87586365685481
 30
0.0
  0
VERTEX
  5
5C1
  8
LAYER_1
 10
-63.86168773558628
 20
17.58067349512667
 30
0.0
  0
VERTEX
  5
5C2
  8
LAYER_1
 10
-63.90511822056243
 20
17.39746921777089
 30
0.0
  0
VERTEX
  5
5C3
  8
LAYER_1
 10
-63.94080598723065
 20
17.17080885865264
 30
0.0
  0
VERTEX
  5
5C4
  8
LAYER_1
 10
-63.96505962919429
 20
16.92951096141827
 30
0.0
  0
VERTEX
  5
5C5
  8
LAYER_1
 10
-63.97418774005663
 20
16.70239406971413
 30
0.0
  0
VERTEX
  5
5C6
  8
LAYER_1
 10
-63.97213536399879
 20
16.54262628419262
 30
0.0
  0
VERTEX
  5
5C7
  8
LAYER_1
 10
-63.96314597913991
 20
16.40324754633572
 30
0.0
  0
VERTEX
  5
5C8
  8
LAYER_1
 10
-63.9438009342968
 20
16.27278015785627
 30
0.0
  0
VERTEX
  5
5C9
  8
LAYER_1
 10
-63.91068157828627
 20
16.13974642046711
 30
0.0
  0
VERTEX
  5
5CA
  8
LAYER_1
 10
-63.86036925992506
 20
15.99266863588105
 30
0.0
  0
VERTEX
  5
5CB
  8
LAYER_1
 10
-63.78944532802998
 20
15.82006910581095
 30
0.0
  0
VERTEX
  5
5CC
  8
LAYER_1
 10
-63.57208801890537
 20
15.35239401606995
 30
0.0
  0
VERTEX
  5
5CD
  8
LAYER_1
 10
-63.00147742833601
 20
14.13750354200602
 30
0.0
  0
VERTEX
  5
5CE
  8
LAYER_1
 10
-62.83377838076714
 20
13.76250352710485
 30
0.0
  0
VERTEX
  5
5CF
  8
LAYER_1
 10
-61.93289210173377
 20
11.96250345557928
 30
0.0
  0
VERTEX
  5
5D0
  8
LAYER_1
 10
-61.87637760565678
 20
11.88750345259905
 30
0.0
  0
VERTEX
  5
5D1
  8
LAYER_1
 10
-61.66939628944707
 20
11.53598848142114
 30
0.0
  0
VERTEX
  5
5D2
  8
LAYER_1
 10
-61.2042241769469
 20
10.68750340491533
 30
0.0
  0
VERTEX
  5
5D3
  8
LAYER_1
 10
-60.98086196590448
 20
10.31039401493035
 30
0.0
  0
VERTEX
  5
5D4
  8
LAYER_1
 10
-60.67207174509503
 20
9.825003370642662
 30
0.0
  0
VERTEX
  5
5D5
  8
LAYER_1
 10
-60.37829082734959
 20
9.369547771666728
 30
0.0
  0
VERTEX
  5
5D6
  8
LAYER_1
 10
-60.19101481303549
 20
9.064409873601505
 30
0.0
  0
VERTEX
  5
5D7
  8
LAYER_1
 10
-60.07958319964978
 20
8.866316398912076
 30
0.0
  0
VERTEX
  5
5D8
  8
LAYER_1
 10
-58.70272801059265
 20
6.937503255903721
 30
0.0
  0
VERTEX
  5
5D9
  8
LAYER_1
 10
-58.65577134319052
 20
6.900003254413605
 30
0.0
  0
VERTEX
  5
5DA
  8
LAYER_1
 10
-58.52878304723748
 20
6.754055641754116
 30
0.0
  0
VERTEX
  5
5DB
  8
LAYER_1
 10
-58.28940991119167
 20
6.45581989426104
 30
0.0
  0
VERTEX
  5
5DC
  8
LAYER_1
 10
-58.04449785320089
 20
6.155610350757474
 30
0.0
  0
VERTEX
  5
5DD
  8
LAYER_1
 10
-57.78229786938731
 20
5.856264392257069
 30
0.0
  0
VERTEX
  5
5DE
  8
LAYER_1
 10
-57.50396276769858
 20
5.55868603131495
 30
0.0
  0
VERTEX
  5
5DF
  8
LAYER_1
 10
-57.21064535608234
 20
5.263779280486244
 30
0.0
  0
VERTEX
  5
5E0
  8
LAYER_1
 10
-56.90349844248622
 20
4.972448152326076
 30
0.0
  0
VERTEX
  5
5E1
  8
LAYER_1
 10
-56.58367483485786
 20
4.685596659389573
 30
0.0
  0
VERTEX
  5
5E2
  8
LAYER_1
 10
-56.25232734114491
 20
4.404128814231859
 30
0.0
  0
VERTEX
  5
5E3
  8
LAYER_1
 10
-55.91060876929498
 20
4.128948629408063
 30
0.0
  0
VERTEX
  5
5E4
  8
LAYER_1
 10
-55.55967192725574
 20
3.860960117473309
 30
0.0
  0
VERTEX
  5
5E5
  8
LAYER_1
 10
-55.20066962297482
 20
3.601067290982723
 30
0.0
  0
VERTEX
  5
5E6
  8
LAYER_1
 10
-54.83475466439985
 20
3.350174162491431
 30
0.0
  0
VERTEX
  5
5E7
  8
LAYER_1
 10
-54.46307985947848
 20
3.109184744554559
 30
0.0
  0
VERTEX
  5
5E8
  8
LAYER_1
 10
-54.08679801615833
 20
2.879003049727233
 30
0.0
  0
VERTEX
  5
5E9
  8
LAYER_1
 10
-53.70706194238706
 20
2.660533090564579
 30
0.0
  0
VERTEX
  5
5EA
  8
LAYER_1
 10
-53.3250244461123
 20
2.454678879621723
 30
0.0
  0
VERTEX
  5
5EB
  8
LAYER_1
 10
-52.94183833528169
 20
2.26234442945379
 30
0.0
  0
VERTEX
  5
5EC
  8
LAYER_1
 10
-52.60541297398046
 20
2.105230450809411
 30
0.0
  0
VERTEX
  5
5ED
  8
LAYER_1
 10
-52.25714663239006
 20
1.95311972857681
 30
0.0
  0
VERTEX
  5
5EE
  8
LAYER_1
 10
-51.89862303188299
 20
1.806457657781029
 30
0.0
  0
VERTEX
  5
5EF
  8
LAYER_1
 10
-51.53142589383177
 20
1.665689633447111
 30
0.0
  0
VERTEX
  5
5F0
  8
LAYER_1
 10
-51.15713893960895
 20
1.531261050600098
 30
0.0
  0
VERTEX
  5
5F1
  8
LAYER_1
 10
-50.77734589058703
 20
1.403617304265032
 30
0.0
  0
VERTEX
  5
5F2
  8
LAYER_1
 10
-50.39363046813855
 20
1.283203789466955
 30
0.0
  0
VERTEX
  5
5F3
  8
LAYER_1
 10
-50.00757639363603
 20
1.17046590123091
 30
0.0
  0
VERTEX
  5
5F4
  8
LAYER_1
 10
-49.62076738845199
 20
1.06584903458194
 30
0.0
  0
VERTEX
  5
5F5
  8
LAYER_1
 10
-49.23478717395897
 20
0.9697985845450849
 30
0.0
  0
VERTEX
  5
5F6
  8
LAYER_1
 10
-48.85121947152948
 20
0.8827599461453888
 30
0.0
  0
VERTEX
  5
5F7
  8
LAYER_1
 10
-48.47164800253604
 20
0.8051785144078936
 30
0.0
  0
VERTEX
  5
5F8
  8
LAYER_1
 10
-48.09765648835118
 20
0.7374996843576416
 30
0.0
  0
VERTEX
  5
5F9
  8
LAYER_1
 10
-47.73082865034744
 20
0.6801688510196748
 30
0.0
  0
VERTEX
  5
5FA
  8
LAYER_1
 10
-47.37274820989733
 20
0.6336314094190358
 30
0.0
  0
SEQEND
  5
8DF
  8
LAYER_1
  0
POLYLINE
  5
75
  8
LAYER_1
 66
     1
 10
0.0
 20
0.0
 30
0.0
 70
     1
  0
VERTEX
  5
5FB
  8
LAYER_1
 10
-13.19890025726436
 20
8.84785247164541
 30
0.0
  0
VERTEX
  5
5FC
  8
LAYER_1
 10
-13.0388425976677
 20
8.534113540266432
 30
0.0
  0
VERTEX
  5
5FD
  8
LAYER_1
 10
-12.26249750703573
 20
8.62153232529981
 30
0.0
  0
VERTEX
  5
5FE
  8
LAYER_1
 10
-9.937497414648533
 20
8.710476926398186
 30
0.0
  0
VERTEX
  5
5FF
  8
LAYER_1
 10
-9.637497402727604
 20
8.835796750133127
 30
0.0
  0
VERTEX
  5
600
  8
LAYER_1
 10
-3.270383256255414
 20
9.159453187740922
 30
0.0
  0
VERTEX
  5
601
  8
LAYER_1
 10
-3.148589026572296
 20
9.234726161318704
 30
0.0
  0
VERTEX
  5
602
  8
LAYER_1
 10
3.337503112852573
 20
9.606505201840037
 30
0.0
  0
VERTEX
  5
603
  8
LAYER_1
 10
3.862503133714199
 20
9.68425095370209
 30
0.0
  0
VERTEX
  5
604
  8
LAYER_1
 10
10.08750338107347
 20
10.0513618273979
 30
0.0
  0
VERTEX
  5
605
  8
LAYER_1
 10
14.88750357180834
 20
10.34313436420496
 30
0.0
  0
VERTEX
  5
606
  8
LAYER_1
 10
16.91250365227461
 20
10.49340654715553
 30
0.0
  0
VERTEX
  5
607
  8
LAYER_1
 10
23.13750389963388
 20
10.86488656457377
 30
0.0
  0
VERTEX
  5
608
  8
LAYER_1
 10
24.63750395923853
 20
11.02050488814827
 30
0.0
  0
VERTEX
  5
609
  8
LAYER_1
 10
29.51250415295362
 20
11.25080820269079
 30
0.0
  0
VERTEX
  5
60A
  8
LAYER_1
 10
30.41250418871641
 20
11.39720821758058
 30
0.0
  0
VERTEX
  5
60B
  8
LAYER_1
 10
36.48750443011522
 20
11.70331044891651
 30
0.0
  0
VERTEX
  5
60C
  8
LAYER_1
 10
37.01250445097685
 20
11.80037979392941
 30
0.0
  0
VERTEX
  5
60D
  8
LAYER_1
 10
39.93750456720591
 20
11.78233665920388
 30
0.0
  0
VERTEX
  5
60E
  8
LAYER_1
 10
40.42500458657742
 20
11.70003672994785
 30
0.0
  0
VERTEX
  5
60F
  8
LAYER_1
 10
40.86844210419804
 20
11.60842644106943
 30
0.0
  0
VERTEX
  5
610
  8
LAYER_1
 10
41.08049289387418
 20
11.55449804095336
 30
0.0
  0
VERTEX
  5
611
  8
LAYER_1
 10
41.25000461935997
 20
11.50374203016808
 30
0.0
  0
VERTEX
  5
612
  8
LAYER_1
 10
41.54379245176702
 20
11.4147547304358
 30
0.0
  0
VERTEX
  5
613
  8
LAYER_1
 10
41.77619722148762
 20
11.36088430458091
 30
0.0
  0
VERTEX
  5
614
  8
LAYER_1
 10
41.99102061868987
 20
11.3064222093614
 30
0.0
  0
VERTEX
  5
615
  8
LAYER_1
 10
42.24253834270175
 20
11.21601238541206
 30
0.0
  0
VERTEX
  5
616
  8
LAYER_1
 10
42.37046001549248
 20
11.16701455159575
 30
0.0
  0
VERTEX
  5
617
  8
LAYER_1
 10
42.48618328446115
 20
11.13235551590206
 30
0.0
  0
VERTEX
  5
618
  8
LAYER_1
 10
42.59088751199432
 20
11.11205171714286
 30
0.0
  0
VERTEX
  5
619
  8
LAYER_1
 10
42.68575206047861
 20
11.10611959413003
 30
0.0
  0
VERTEX
  5
61A
  8
LAYER_1
 10
42.77195629230062
 20
11.11457558567545
 30
0.0
  0
VERTEX
  5
61B
  8
LAYER_1
 10
42.85067956984693
 20
11.13743613059099
 30
0.0
  0
VERTEX
  5
61C
  8
LAYER_1
 10
42.92310125550416
 20
11.17471766768853
 30
0.0
  0
VERTEX
  5
61D
  8
LAYER_1
 10
42.99040071165891
 20
11.22643663577995
 30
0.0
  0
VERTEX
  5
61E
  8
LAYER_1
 10
43.03331225970763
 20
11.25870892330344
 30
0.0
  0
VERTEX
  5
61F
  8
LAYER_1
 10
43.08614884882209
 20
11.28601351207464
 30
0.0
  0
VERTEX
  5
620
  8
LAYER_1
 10
43.15064640837166
 20
11.30868317957092
 30
0.0
  0
VERTEX
  5
621
  8
LAYER_1
 10
43.22854086772573
 20
11.32705070326968
 30
0.0
  0
VERTEX
  5
622
  8
LAYER_1
 10
43.43146420332488
 20
11.35221042918416
 30
0.0
  0
VERTEX
  5
623
  8
LAYER_1
 10
43.70880629057459
 20
11.36415490963714
 30
0.0
  0
VERTEX
  5
624
  8
LAYER_1
 10
43.98975115508398
 20
11.37816120474044
 30
0.0
  0
VERTEX
  5
625
  8
LAYER_1
 10
44.2302728266792
 20
11.40937389009085
 30
0.0
  0
VERTEX
  5
626
  8
LAYER_1
 10
44.43911084594608
 20
11.45937243273337
 30
0.0
  0
VERTEX
  5
627
  8
LAYER_1
 10
44.62500475347042
 20
11.52973629971301
 30
0.0
  0
VERTEX
  5
628
  8
LAYER_1
 10
45.04625925398988
 20
11.69613192386829
 30
0.0
  0
VERTEX
  5
629
  8
LAYER_1
 10
45.58512643853392
 20
11.87951804522731
 30
0.0
  0
VERTEX
  5
62A
  8
LAYER_1
 10
46.20774811018639
 20
12.07500346004963
 30
0.0
  0
VERTEX
  5
62B
  8
LAYER_1
 10
46.29762646684613
 20
12.07546551568596
 30
0.0
  0
VERTEX
  5
62C
  8
LAYER_1
 10
46.34976042303418
 20
12.08463327533006
 30
0.0
  0
VERTEX
  5
62D
  8
LAYER_1
 10
46.42526829578277
 20
12.10925343051002
 30
0.0
  0
VERTEX
  5
62E
  8
LAYER_1
 10
46.60593968153381
 20
12.18983936036361
 30
0.0
  0
VERTEX
  5
62F
  8
LAYER_1
 10
46.82437453956175
 20
12.30375114940492
 30
0.0
  0
VERTEX
  5
630
  8
LAYER_1
 10
48.63750491291285
 20
12.44356560753448
 30
0.0
  0
VERTEX
  5
631
  8
LAYER_1
 10
52.16250505298376
 20
12.60478265119144
 30
0.0
  0
VERTEX
  5
632
  8
LAYER_1
 10
52.91250508278608
 20
12.74983449463723
 30
0.0
  0
VERTEX
  5
633
  8
LAYER_1
 10
64.76250555366278
 20
13.35504800253904
 30
0.0
  0
VERTEX
  5
634
  8
LAYER_1
 10
65.07204554324224
 20
13.39324009751019
 30
0.0
  0
VERTEX
  5
635
  8
LAYER_1
 10
65.17447881022849
 20
13.40724009443796
 30
0.0
  0
VERTEX
  5
636
  8
LAYER_1
 10
65.25543757354116
 20
13.42622146513898
 30
0.0
  0
VERTEX
  5
637
  8
LAYER_1
 10
65.32207486874375
 20
13.45842893396992
 30
0.0
  0
VERTEX
  5
638
  8
LAYER_1
 10
65.38154373139983
 20
13.51210722528743
 30
0.0
  0
VERTEX
  5
639
  8
LAYER_1
 10
65.44099719707287
 20
13.59550106344817
 30
0.0
  0
VERTEX
  5
63A
  8
LAYER_1
 10
65.50758830132644
 20
13.71685517280881
 30
0.0
  0
VERTEX
  5
63B
  8
LAYER_1
 10
65.69079556782916
 20
14.10642310255639
 30
0.0
  0
VERTEX
  5
63C
  8
LAYER_1
 10
66.00000560283661
 20
14.78141401263143
 30
0.0
  0
VERTEX
  5
63D
  8
LAYER_1
 10
66.00000560283661
 20
14.84404949599895
 30
0.0
  0
VERTEX
  5
63E
  8
LAYER_1
 10
66.03714528445404
 20
14.97359354039392
 30
0.0
  0
VERTEX
  5
63F
  8
LAYER_1
 10
66.12643856153423
 20
15.19709428750832
 30
0.0
  0
VERTEX
  5
640
  8
LAYER_1
 10
66.21021691271196
 20
15.4229856613337
 30
0.0
  0
VERTEX
  5
641
  8
LAYER_1
 10
66.23141062973986
 20
15.50788213873545
 30
0.0
  0
VERTEX
  5
642
  8
LAYER_1
 10
66.23409730439363
 20
15.55827738271464
 30
0.0
  0
VERTEX
  5
643
  8
LAYER_1
 10
66.23556486531785
 20
15.60680388352091
 30
0.0
  0
VERTEX
  5
644
  8
LAYER_1
 10
66.25343921328007
 20
15.68661219881822
 30
0.0
  0
VERTEX
  5
645
  8
LAYER_1
 10
66.32630589305651
 20
15.89577739612568
 30
0.0
  0
VERTEX
  5
646
  8
LAYER_1
 10
66.43215995934281
 20
16.1570461333159
 30
0.0
  0
VERTEX
  5
647
  8
LAYER_1
 10
66.50136690469479
 20
16.34819100376749
 30
0.0
  0
VERTEX
  5
648
  8
LAYER_1
 10
66.54344331390453
 20
16.49840378606796
 30
0.0
  0
VERTEX
  5
649
  8
LAYER_1
 10
66.56790577176409
 20
16.63687625880482
 30
0.0
  0
VERTEX
  5
64A
  8
LAYER_1
 10
66.58260662651044
 20
16.71153568093021
 30
0.0
  0
VERTEX
  5
64B
  8
LAYER_1
 10
66.60558266644499
 20
16.78591434443865
 30
0.0
  0
VERTEX
  5
64C
  8
LAYER_1
 10
66.6336881109981
 20
16.85139896773788
 30
0.0
  0
VERTEX
  5
64D
  8
LAYER_1
 10
66.66377717960015
 20
16.89937626923563
 30
0.0
  0
VERTEX
  5
64E
  8
LAYER_1
 10
66.6962028536579
 20
16.95726635677903
 30
0.0
  0
VERTEX
  5
64F
  8
LAYER_1
 10
66.73067034276855
 20
17.04974123911347
 30
0.0
  0
VERTEX
  5
650
  8
LAYER_1
 10
66.76306220864825
 20
17.16406548599402
 30
0.0
  0
VERTEX
  5
651
  8
LAYER_1
 10
66.78926101301312
 20
17.28750366717577
 30
0.0
  0
VERTEX
  5
652
  8
LAYER_1
 10
66.86614465719697
 20
17.64631351073393
 30
0.0
  0
VERTEX
  5
653
  8
LAYER_1
 10
66.97701880026199
 20
18.08770737318693
 30
0.0
  0
VERTEX
  5
654
  8
LAYER_1
 10
67.06319285332067
 20
18.45020207477635
 30
0.0
  0
VERTEX
  5
655
  8
LAYER_1
 10
67.08222735537251
 20
18.56765419609809
 30
0.0
  0
VERTEX
  5
656
  8
LAYER_1
 10
67.08069117472331
 20
18.61931819115188
 30
0.0
  0
VERTEX
  5
657
  8
LAYER_1
 10
67.07426024745521
 20
18.66190575669419
 30
0.0
  0
VERTEX
  5
658
  8
LAYER_1
 10
67.07996746910898
 20
18.75464482736585
 30
0.0
  0
VERTEX
  5
659
  8
LAYER_1
 10
67.12233111678637
 20
19.03590099154557
 30
0.0
  0
VERTEX
  5
65A
  8
LAYER_1
 10
67.19537818271692
 20
19.42107666806453
 30
0.0
  0
VERTEX
  5
65B
  8
LAYER_1
 10
67.27696169193462
 20
22.33994242059789
 30
0.0
  0
VERTEX
  5
65C
  8
LAYER_1
 10
67.20098366973735
 20
22.38689942071379
 30
0.0
  0
VERTEX
  5
65D
  8
LAYER_1
 10
67.17139535429344
 20
22.42697506636707
 30
0.0
  0
VERTEX
  5
65E
  8
LAYER_1
 10
67.14699854573132
 20
22.50137977461956
 30
0.0
  0
VERTEX
  5
65F
  8
LAYER_1
 10
67.13032264823636
 20
22.5994894900536
 30
0.0
  0
VERTEX
  5
660
  8
LAYER_1
 10
67.12389706599384
 20
22.71068015725155
 30
0.0
  0
VERTEX
  5
661
  8
LAYER_1
 10
67.11571849480673
 20
22.8427808542844
 30
0.0
  0
VERTEX
  5
662
  8
LAYER_1
 10
67.09391599324545
 20
23.01432370959
 30
0.0
  0
VERTEX
  5
663
  8
LAYER_1
 10
67.02065519435682
 20
23.42149573596411
 30
0.0
  0
VERTEX
  5
664
  8
LAYER_1
 10
66.92654666004078
 20
23.82371591826328
 30
0.0
  0
VERTEX
  5
665
  8
LAYER_1
 10
66.87868448919525
 20
23.98906896847519
 30
0.0
  0
VERTEX
  5
666
  8
LAYER_1
 10
66.83402238101019
 20
24.1125039383769
 30
0.0
  0
VERTEX
  5
667
  8
LAYER_1
 10
66.56706448192628
 20
24.78750396519899
 30
0.0
  0
VERTEX
  5
668
  8
LAYER_1
 10
66.47295291172838
 20
25.01502350548981
 30
0.0
  0
VERTEX
  5
669
  8
LAYER_1
 10
66.36636482271443
 20
25.24641023343429
 30
0.0
  0
VERTEX
  5
66A
  8
LAYER_1
 10
66.26039056470134
 20
25.45459383545676
 30
0.0
  0
VERTEX
  5
66B
  8
LAYER_1
 10
66.16812048750603
 20
25.61250399798155
 30
0.0
  0
VERTEX
  5
66C
  8
LAYER_1
 10
66.04460148290022
 20
25.78515527587755
 30
0.0
  0
VERTEX
  5
66D
  8
LAYER_1
 10
65.89099377645307
 20
25.97553562594187
 30
0.0
  0
VERTEX
  5
66E
  8
LAYER_1
 10
65.7182352389148
 20
26.17242642536107
 30
0.0
  0
VERTEX
  5
66F
  8
LAYER_1
 10
65.53726374103559
 20
26.36460905132173
 30
0.0
  0
VERTEX
  5
670
  8
LAYER_1
 10
65.35901715356565
 20
26.54086488101041
 30
0.0
  0
VERTEX
  5
671
  8
LAYER_1
 10
65.19443334725514
 20
26.68997529161367
 30
0.0
  0
VERTEX
  5
672
  8
LAYER_1
 10
65.05445019285432
 20
26.8007216603181
 30
0.0
  0
VERTEX
  5
673
  8
LAYER_1
 10
64.95000556111336
 20
26.86188536431025
 30
0.0
  0
VERTEX
  5
674
  8
LAYER_1
 10
64.76250555366278
 20
26.93557799613244
 30
0.0
  0
VERTEX
  5
675
  8
LAYER_1
 10
62.36250545829535
 20
26.76489884412358
 30
0.0
  0
VERTEX
  5
676
  8
LAYER_1
 10
44.66169856406749
 20
25.81988473866728
 30
0.0
  0
VERTEX
  5
677
  8
LAYER_1
 10
44.0549318992976
 20
25.91643532955213
 30
0.0
  0
VERTEX
  5
678
  8
LAYER_1
 10
43.5363706736819
 20
26.00886735669145
 30
0.0
  0
VERTEX
  5
679
  8
LAYER_1
 10
43.14167240517638
 20
26.09551586878386
 30
0.0
  0
VERTEX
  5
67A
  8
LAYER_1
 10
43.0364527328874
 20
26.11937162047349
 30
0.0
  0
VERTEX
  5
67B
  8
LAYER_1
 10
42.93163815710953
 20
26.1345589852938
 30
0.0
  0
VERTEX
  5
67C
  8
LAYER_1
 10
42.82810945537719
 20
26.14143272718188
 30
0.0
  0
VERTEX
  5
67D
  8
LAYER_1
 10
42.7267474052248
 20
26.14034761007481
 30
0.0
  0
VERTEX
  5
67E
  8
LAYER_1
 10
42.62843278418678
 20
26.13165839790967
 30
0.0
  0
VERTEX
  5
67F
  8
LAYER_1
 10
42.53404636979758
 20
26.11571985462357
 30
0.0
  0
VERTEX
  5
680
  8
LAYER_1
 10
42.44446893959158
 20
26.09288674415357
 30
0.0
  0
VERTEX
  5
681
  8
LAYER_1
 10
42.36058127110323
 20
26.06351383043678
 30
0.0
  0
VERTEX
  5
682
  8
LAYER_1
 10
42.28326414186694
 20
26.02795587741028
 30
0.0
  0
VERTEX
  5
683
  8
LAYER_1
 10
42.21339832941714
 20
25.98656764901115
 30
0.0
  0
VERTEX
  5
684
  8
LAYER_1
 10
42.15186461128825
 20
25.93970390917648
 30
0.0
  0
VERTEX
  5
685
  8
LAYER_1
 10
42.0995437650147
 20
25.88771942184336
 30
0.0
  0
VERTEX
  5
686
  8
LAYER_1
 10
42.05731656813091
 20
25.83096895094887
 30
0.0
  0
VERTEX
  5
687
  8
LAYER_1
 10
42.02606379817129
 20
25.76980726043011
 30
0.0
  0
VERTEX
  5
688
  8
LAYER_1
 10
42.00666623267028
 20
25.70458911422415
 30
0.0
  0
VERTEX
  5
689
  8
LAYER_1
 10
42.00000464916229
 20
25.63566927626809
 30
0.0
  0
VERTEX
  5
68A
  8
LAYER_1
 10
41.99353035234827
 20
25.54051068748351
 30
0.0
  0
VERTEX
  5
68B
  8
LAYER_1
 10
41.98014284425501
 20
25.51741926902049
 30
0.0
  0
VERTEX
  5
68C
  8
LAYER_1
 10
41.95528208563694
 20
25.51093231972699
 30
0.0
  0
VERTEX
  5
68D
  8
LAYER_1
 10
41.91541831844357
 20
25.52125925351552
 30
0.0
  0
VERTEX
  5
68E
  8
LAYER_1
 10
41.85702178462443
 20
25.54860948429857
 30
0.0
  0
VERTEX
  5
68F
  8
LAYER_1
 10
41.67051138490686
 20
25.65521749249825
 30
0.0
  0
VERTEX
  5
690
  8
LAYER_1
 10
41.40744409602512
 20
25.8104309914853
 30
0.0
  0
VERTEX
  5
691
  8
LAYER_1
 10
40.7088854162769
 20
25.4438478715477
 30
0.0
  0
VERTEX
  5
692
  8
LAYER_1
 10
40.34470724796697
 20
25.26347892603989
 30
0.0
  0
VERTEX
  5
693
  8
LAYER_1
 10
40.18401694137432
 20
25.1937547456076
 30
0.0
  0
VERTEX
  5
694
  8
LAYER_1
 10
40.03148790133928
 20
25.13551172280613
 30
0.0
  0
VERTEX
  5
695
  8
LAYER_1
 10
39.88254168899885
 20
25.08713057969778
 30
0.0
  0
VERTEX
  5
696
  8
LAYER_1
 10
39.73259986549006
 20
25.04699203834485
 30
0.0
  0
VERTEX
  5
697
  8
LAYER_1
 10
39.41141562951553
 20
24.98496564915449
 30
0.0
  0
VERTEX
  5
698
  8
LAYER_1
 10
38.42826814351235
 20
24.82575795457224
 30
0.0
  0
VERTEX
  5
699
  8
LAYER_1
 10
38.0440317645223
 20
24.75884936244562
 30
0.0
  0
VERTEX
  5
69A
  8
LAYER_1
 10
36.92826808390771
 20
24.67648037928483
 30
0.0
  0
VERTEX
  5
69B
  8
LAYER_1
 10
34.53750435262918
 20
24.4854578143586
 30
0.0
  0
VERTEX
  5
69C
  8
LAYER_1
 10
33.26250430196524
 20
24.37680423259316
 30
0.0
  0
VERTEX
  5
69D
  8
LAYER_1
 10
28.61250411719084
 20
24.14925406807473
 30
0.0
  0
VERTEX
  5
69E
  8
LAYER_1
 10
27.86250408738852
 20
24.00481994168472
 30
0.0
  0
VERTEX
  5
69F
  8
LAYER_1
 10
22.76250388473272
 20
23.76846953441583
 30
0.0
  0
VERTEX
  5
6A0
  8
LAYER_1
 10
21.86250384896994
 20
23.62578479896041
 30
0.0
  0
VERTEX
  5
6A1
  8
LAYER_1
 10
16.01250361651182
 20
23.32374736381642
 30
0.0
  0
VERTEX
  5
6A2
  8
LAYER_1
 10
15.0375035777688
 20
23.17736335218133
 30
0.0
  0
VERTEX
  5
6A3
  8
LAYER_1
 10
10.08750338107347
 20
22.94700758764435
 30
0.0
  0
VERTEX
  5
6A4
  8
LAYER_1
 10
9.037503339350224
 20
22.79648662914994
 30
0.0
  0
VERTEX
  5
6A5
  8
LAYER_1
 10
3.262503109872341
 20
22.49863045168144
 30
0.0
  0
VERTEX
  5
6A6
  8
LAYER_1
 10
2.287503071129322
 20
22.35236331939882
 30
0.0
  0
VERTEX
  5
6A7
  8
LAYER_1
 10
-2.662497125566006
 20
22.1220075548618
 30
0.0
  0
VERTEX
  5
6A8
  8
LAYER_1
 10
-3.712497167289257
 20
21.9724425095213
 30
0.0
  0
VERTEX
  5
6A9
  8
LAYER_1
 10
-9.407330517425237
 20
21.66987658481401
 30
0.0
  0
VERTEX
  5
6AA
  8
LAYER_1
 10
-10.38749743252993
 20
21.53481480175384
 30
0.0
  0
VERTEX
  5
6AB
  8
LAYER_1
 10
-12.96810790996051
 20
21.42950518483624
 30
0.0
  0
VERTEX
  5
6AC
  8
LAYER_1
 10
-13.12359839083624
 20
21.26399315255705
 30
0.0
  0
VERTEX
  5
6AD
  8
LAYER_1
 10
-13.18644638817361
 20
21.18688169749237
 30
0.0
  0
VERTEX
  5
6AE
  8
LAYER_1
 10
-13.24262352915769
 20
21.09927666746525
 30
0.0
  0
VERTEX
  5
6AF
  8
LAYER_1
 10
-13.28599900733016
 20
21.0119509252805
 30
0.0
  0
VERTEX
  5
6B0
  8
LAYER_1
 10
-13.3104420162327
 20
20.93567733374297
 30
0.0
  0
VERTEX
  5
6B1
  8
LAYER_1
 10
-13.33698745288209
 20
20.84443736867977
 30
0.0
  0
VERTEX
  5
6B2
  8
LAYER_1
 10
-13.38608736303855
 20
20.71636159956867
 30
0.0
  0
VERTEX
  5
6B3
  8
LAYER_1
 10
-13.5239302705001
 20
20.41768866232623
 30
0.0
  0
VERTEX
  5
6B4
  8
LAYER_1
 10
-13.72897395944852
 20
19.99600444929113
 30
0.0
  0
VERTEX
  5
6B5
  8
LAYER_1
 10
-13.80631109448736
 20
19.8162543705125
 30
0.0
  0
VERTEX
  5
6B6
  8
LAYER_1
 10
-13.86848985363812
 20
19.65258199413499
 30
0.0
  0
VERTEX
  5
6B7
  8
LAYER_1
 10
-13.91673380970242
 20
19.50149958309
 30
0.0
  0
VERTEX
  5
6B8
  8
LAYER_1
 10
-13.95226653548191
 20
19.3595194003089
 30
0.0
  0
VERTEX
  5
6B9
  8
LAYER_1
 10
-13.9763116037782
 20
19.22315370872307
 30
0.0
  0
VERTEX
  5
6BA
  8
LAYER_1
 10
-13.99009258739293
 20
19.08891477126392
 30
0.0
  0
VERTEX
  5
6BB
  8
LAYER_1
 10
-14.02188276343886
 20
18.75219092838645
 30
0.0
  0
VERTEX
  5
6BC
  8
LAYER_1
 10
-14.06517694464672
 20
18.434144682384
 30
0.0
  0
VERTEX
  5
6BD
  8
LAYER_1
 10
-14.11805710219729
 20
18.06225265568342
 30
0.0
  0
VERTEX
  5
6BE
  8
LAYER_1
 10
-14.16030950740602
 20
17.64206265303839
 30
0.0
  0
VERTEX
  5
6BF
  8
LAYER_1
 10
-14.19158814666054
 20
17.18550928918113
 30
0.0
  0
VERTEX
  5
6C0
  8
LAYER_1
 10
-14.21154700634852
 20
16.70452717884381
 30
0.0
  0
VERTEX
  5
6C1
  8
LAYER_1
 10
-14.21984007285759
 20
16.21105093675865
 30
0.0
  0
VERTEX
  5
6C2
  8
LAYER_1
 10
-14.21612133257543
 20
15.71701517765782
 30
0.0
  0
VERTEX
  5
6C3
  8
LAYER_1
 10
-14.20004477188966
 20
15.23435451627354
 30
0.0
  0
VERTEX
  5
6C4
  8
LAYER_1
 10
-14.17126437718796
 20
14.77500356733799
 30
0.0
  0
VERTEX
  5
6C5
  8
LAYER_1
 10
-14.05180928460889
 20
13.12500350177288
 30
0.0
  0
VERTEX
  5
6C6
  8
LAYER_1
 10
-14.01433070105139
 20
12.6946909846738
 30
0.0
  0
VERTEX
  5
6C7
  8
LAYER_1
 10
-13.99193703610907
 20
12.53806988470023
 30
0.0
  0
VERTEX
  5
6C8
  8
LAYER_1
 10
-13.97065751242413
 20
12.45000347495079
 30
0.0
  0
VERTEX
  5
6C9
  8
LAYER_1
 10
-13.92257301412597
 20
12.33750347048044
 30
0.0
  0
VERTEX
  5
6CA
  8
LAYER_1
 10
-13.79037070676753
 20
11.58750344067812
 30
0.0
  0
VERTEX
  5
6CB
  8
LAYER_1
 10
-13.50856315813506
 20
9.999547406950086
 30
0.0
  0
VERTEX
  5
6CC
  8
LAYER_1
 10
-13.43784469834408
 20
9.649428839746687
 30
0.0
  0
VERTEX
  5
6CD
  8
LAYER_1
 10
-13.35588751897875
 20
9.315580168084983
 30
0.0
  0
VERTEX
  5
6CE
  8
LAYER_1
 10
-13.27285243397391
 20
9.035791382029663
 30
0.0
  0
SEQEND
  5
8E0
  8
LAYER_1
  0
POLYLINE
  5
76
  8
LAYER_1
 66
     1
 10
0.0
 20
0.0
 30
0.0
 70
     1
  0
VERTEX
  5
6CF
  8
LAYER_1
 10
-44.54999879002571
 20
11.04385137455246
 30
0.0
  0
VERTEX
  5
6D0
  8
LAYER_1
 10
-44.21249877661467
 20
11.11163170297213
 30
0.0
  0
VERTEX
  5
6D1
  8
LAYER_1
 10
-41.99999868869781
 20
11.13492311601601
 30
0.0
  0
VERTEX
  5
6D2
  8
LAYER_1
 10
-41.99999868869781
 20
11.18498271444581
 30
0.0
  0
VERTEX
  5
6D3
  8
LAYER_1
 10
-41.99295367132135
 20
11.19870368683786
 30
0.0
  0
VERTEX
  5
6D4
  8
LAYER_1
 10
-41.97242354782434
 20
11.21360194513335
 30
0.0
  0
VERTEX
  5
6D5
  8
LAYER_1
 10
-41.89453755426315
 20
11.24617374173591
 30
0.0
  0
VERTEX
  5
6D6
  8
LAYER_1
 10
-41.77359985160308
 20
11.28118494885599
 30
0.0
  0
VERTEX
  5
6D7
  8
LAYER_1
 10
-41.61686958343297
 20
11.31712241109612
 30
0.0
  0
VERTEX
  5
6D8
  8
LAYER_1
 10
-41.22506792491797
 20
11.38572347934651
 30
0.0
  0
VERTEX
  5
6D9
  8
LAYER_1
 10
-40.77720572742887
 20
11.43987170330718
 30
0.0
  0
VERTEX
  5
6DA
  8
LAYER_1
 10
-40.52464634753283
 20
11.47623501061543
 30
0.0
  0
VERTEX
  5
6DB
  8
LAYER_1
 10
-40.21420987857712
 20
11.53980760655391
 30
0.0
  0
VERTEX
  5
6DC
  8
LAYER_1
 10
-39.88527132212635
 20
11.62163522567885
 30
0.0
  0
VERTEX
  5
6DD
  8
LAYER_1
 10
-39.57720567974516
 20
11.71276360254646
 30
0.0
  0
VERTEX
  5
6DE
  8
LAYER_1
 10
-39.24576706112725
 20
11.81297638405371
 30
0.0
  0
VERTEX
  5
6DF
  8
LAYER_1
 10
-38.97471641186062
 20
11.87668271105915
 30
0.0
  0
VERTEX
  5
6E0
  8
LAYER_1
 10
-38.75279611468801
 20
11.90600705705848
 30
0.0
  0
VERTEX
  5
6E1
  8
LAYER_1
 10
-38.65674184274408
 20
11.90843988514828
 30
0.0
  0
VERTEX
  5
6E2
  8
LAYER_1
 10
-38.56874855235219
 20
11.90307389554745
 30
0.0
  0
VERTEX
  5
6E3
  8
LAYER_1
 10
-38.44498389899672
 20
11.89389249226573
 30
0.0
  0
VERTEX
  5
6E4
  8
LAYER_1
 10
-38.34363135590684
 20
11.89450423437775
 30
0.0
  0
VERTEX
  5
6E5
  8
LAYER_1
 10
-38.27514990787313
 20
11.90427003563495
 30
0.0
  0
VERTEX
  5
6E6
  8
LAYER_1
 10
-38.25650427724941
 20
11.91238599399034
 30
0.0
  0
VERTEX
  5
6E7
  8
LAYER_1
 10
-38.2499985396862
 20
11.92255080978882
 30
0.0
  0
VERTEX
  5
6E8
  8
LAYER_1
 10
-38.2366831094696
 20
11.95847776459992
 30
0.0
  0
VERTEX
  5
6E9
  8
LAYER_1
 10
-38.20042822521646
 20
12.01629009734966
 30
0.0
  0
VERTEX
  5
6EA
  8
LAYER_1
 10
-38.08124853298068
 20
12.16566248879538
 30
0.0
  0
VERTEX
  5
6EB
  8
LAYER_1
 10
-37.91249852627516
 20
12.35465239361369
 30
0.0
  0
VERTEX
  5
6EC
  8
LAYER_1
 10
-36.33749846369028
 20
13.25318467636444
 30
0.0
  0
VERTEX
  5
6ED
  8
LAYER_1
 10
-36.02173630619025
 20
13.41409409800936
 30
0.0
  0
VERTEX
  5
6EE
  8
LAYER_1
 10
-35.88853957480273
 20
13.47660327407504
 30
0.0
  0
VERTEX
  5
6EF
  8
LAYER_1
 10
-35.75929691096884
 20
13.52785202382255
 30
0.0
  0
VERTEX
  5
6F0
  8
LAYER_1
 10
-35.6487739402753
 20
13.56254758886317
 30
0.0
  0
VERTEX
  5
6F1
  8
LAYER_1
 10
-35.57173628830886
 20
13.57539721080821
 30
0.0
  0
VERTEX
  5
6F2
  8
LAYER_1
 10
-35.53733120383129
 20
13.58054376731447
 30
0.0
  0
VERTEX
  5
6F3
  8
LAYER_1
 10
-35.50455017841787
 20
13.59606798022578
 30
0.0
  0
VERTEX
  5
6F4
  8
LAYER_1
 10
-35.47309016130383
 20
13.6224074063772
 30
0.0
  0
VERTEX
  5
6F5
  8
LAYER_1
 10
-35.44264810172439
 20
13.65999960260383
 30
0.0
  0
VERTEX
  5
6F6
  8
LAYER_1
 10
-35.38360565211022
 20
13.77069253262311
 30
0.0
  0
VERTEX
  5
6F7
  8
LAYER_1
 10
-35.32499842345715
 20
13.93164722496431
 30
0.0
  0
VERTEX
  5
6F8
  8
LAYER_1
 10
-35.28632654692046
 20
14.04862684006471
 30
0.0
  0
VERTEX
  5
6F9
  8
LAYER_1
 10
-35.24674446934666
 20
14.14207895488741
 30
0.0
  0
VERTEX
  5
6FA
  8
LAYER_1
 10
-35.19616041583519
 20
14.22035360097845
 30
0.0
  0
VERTEX
  5
6FB
  8
LAYER_1
 10
-35.12448261148555
 20
14.29180080988389
 30
0.0
  0
VERTEX
  5
6FC
  8
LAYER_1
 10
-35.02161928139718
 20
14.36477061314978
 30
0.0
  0
VERTEX
  5
6FD
  8
LAYER_1
 10
-34.87747865066954
 20
14.44761304232215
 30
0.0
  0
VERTEX
  5
6FE
  8
LAYER_1
 10
-34.42499838769436
 20
14.67631590457059
 30
0.0
  0
VERTEX
  5
6FF
  8
LAYER_1
 10
-33.63749835640192
 20
15.06512826117469
 30
0.0
  0
VERTEX
  5
700
  8
LAYER_1
 10
-33.50586557692766
 20
15.11888117241701
 30
0.0
  0
VERTEX
  5
701
  8
LAYER_1
 10
-33.67078720338096
 20
15.753192401915
 30
0.0
  0
VERTEX
  5
702
  8
LAYER_1
 10
-33.8965603261983
 20
16.6500036418438
 30
0.0
  0
VERTEX
  5
703
  8
LAYER_1
 10
-34.07151069269484
 20
17.32500366866589
 30
0.0
  0
VERTEX
  5
704
  8
LAYER_1
 10
-34.35162773087093
 20
18.33750370889902
 30
0.0
  0
VERTEX
  5
705
  8
LAYER_1
 10
-34.58695339215014
 20
19.23100831547355
 30
0.0
  0
VERTEX
  5
706
  8
LAYER_1
 10
-34.65150544436912
 20
19.46594703171273
 30
0.0
  0
VERTEX
  5
707
  8
LAYER_1
 10
-34.70937964324558
 20
19.6186443184079
 30
0.0
  0
VERTEX
  5
708
  8
LAYER_1
 10
-34.7624984011054
 20
19.71277573860962
 30
0.0
  0
VERTEX
  5
709
  8
LAYER_1
 10
-35.2124984189868
 20
19.30215299679662
 30
0.0
  0
VERTEX
  5
70A
  8
LAYER_1
 10
-35.51682672193365
 20
19.04335542762764
 30
0.0
  0
VERTEX
  5
70B
  8
LAYER_1
 10
-35.82231844563471
 20
18.8192928187733
 30
0.0
  0
VERTEX
  5
70C
  8
LAYER_1
 10
-36.12254298778454
 20
18.63282651897164
 30
0.0
  0
VERTEX
  5
70D
  8
LAYER_1
 10
-36.26867050255732
 20
18.5545861564462
 30
0.0
  0
VERTEX
  5
70E
  8
LAYER_1
 10
-36.41106974607777
 20
18.48681787696069
 30
0.0
  0
VERTEX
  5
70F
  8
LAYER_1
 10
-36.54893689305771
 20
18.42987934910737
 30
0.0
  0
VERTEX
  5
710
  8
LAYER_1
 10
-36.68146811820897
 20
18.3841282414785
 30
0.0
  0
VERTEX
  5
711
  8
LAYER_1
 10
-36.80785959624338
 20
18.34992222266632
 30
0.0
  0
VERTEX
  5
712
  8
LAYER_1
 10
-36.92730750187276
 20
18.32761896126309
 30
0.0
  0
VERTEX
  5
713
  8
LAYER_1
 10
-37.03900800980893
 20
18.31757612586108
 30
0.0
  0
VERTEX
  5
714
  8
LAYER_1
 10
-37.14215729476372
 20
18.32015138505252
 30
0.0
  0
VERTEX
  5
715
  8
LAYER_1
 10
-37.23595153144895
 20
18.33570240742968
 30
0.0
  0
VERTEX
  5
716
  8
LAYER_1
 10
-37.31958689457645
 20
18.36458686158481
 30
0.0
  0
VERTEX
  5
717
  8
LAYER_1
 10
-37.40280067245156
 20
18.39573095254876
 30
0.0
  0
VERTEX
  5
718
  8
LAYER_1
 10
-37.47718726707599
 20
18.41112669609682
 30
0.0
  0
VERTEX
  5
719
  8
LAYER_1
 10
-37.53492704933826
 20
18.40993354110262
 30
0.0
  0
VERTEX
  5
71A
  8
LAYER_1
 10
-37.55511075173627
 20
18.40285345442519
 30
0.0
  0
VERTEX
  5
71B
  8
LAYER_1
 10
-37.56820039012694
 20
18.39131093643982
 30
0.0
  0
VERTEX
  5
71C
  8
LAYER_1
 10
-37.61618624617215
 20
18.34784828256203
 30
0.0
  0
VERTEX
  5
71D
  8
LAYER_1
 10
-37.71506906545356
 20
18.28076437336341
 30
0.0
  0
VERTEX
  5
71E
  8
LAYER_1
 10
-38.0397676577772
 20
18.08895735529386
 30
0.0
  0
VERTEX
  5
71F
  8
LAYER_1
 10
-38.49078029520231
 20
17.84233901481153
 30
0.0
  0
VERTEX
  5
720
  8
LAYER_1
 10
-39.01659110583327
 20
17.56735848449679
 30
0.0
  0
VERTEX
  5
721
  8
LAYER_1
 10
-39.56568421777452
 20
17.29046489693001
 30
0.0
  0
VERTEX
  5
722
  8
LAYER_1
 10
-40.08654375913048
 20
17.03810738469156
 30
0.0
  0
VERTEX
  5
723
  8
LAYER_1
 10
-40.52765385800556
 20
16.83673508036181
 30
0.0
  0
VERTEX
  5
724
  8
LAYER_1
 10
-40.83749864250422
 20
16.71279711652112
 30
0.0
  0
VERTEX
  5
725
  8
LAYER_1
 10
-41.17734240600839
 20
16.58923672060888
 30
0.0
  0
VERTEX
  5
726
  8
LAYER_1
 10
-41.29786975454772
 20
16.53872342433703
 30
0.0
  0
VERTEX
  5
727
  8
LAYER_1
 10
-41.36249866336584
 20
16.50482037815807
 30
0.0
  0
VERTEX
  5
728
  8
LAYER_1
 10
-41.41825061870622
 20
16.47615729337752
 30
0.0
  0
VERTEX
  5
729
  8
LAYER_1
 10
-41.51460804441012
 20
16.43991121873497
 30
0.0
  0
VERTEX
  5
72A
  8
LAYER_1
 10
-41.77499867975712
 20
16.36325107137866
 30
0.0
  0
VERTEX
  5
72B
  8
LAYER_1
 10
-42.11249869316816
 20
16.27822279625175
 30
0.0
  0
VERTEX
  5
72C
  8
LAYER_1
 10
-44.13749877363443
 20
15.81000212613873
 30
0.0
  0
VERTEX
  5
72D
  8
LAYER_1
 10
-44.39195304393851
 20
15.74559282905786
 30
0.0
  0
VERTEX
  5
72E
  8
LAYER_1
 10
-44.48753573839461
 20
15.72743154358307
 30
0.0
  0
VERTEX
  5
72F
  8
LAYER_1
 10
-44.58010683587786
 20
15.72186803284282
 30
0.0
  0
VERTEX
  5
730
  8
LAYER_1
 10
-44.66904506719271
 20
15.72871286025643
 30
0.0
  0
VERTEX
  5
731
  8
LAYER_1
 10
-44.75372916314365
 20
15.74777658924321
 30
0.0
  0
VERTEX
  5
732
  8
LAYER_1
 10
-44.83353785453511
 20
15.77886978322246
 30
0.0
  0
VERTEX
  5
733
  8
LAYER_1
 10
-44.90784987217155
 20
15.8218030056135
 30
0.0
  0
VERTEX
  5
734
  8
LAYER_1
 10
-44.97604394685743
 20
15.87638681983564
 30
0.0
  0
VERTEX
  5
735
  8
LAYER_1
 10
-45.03749880939722
 20
15.9424317893082
 30
0.0
  0
VERTEX
  5
736
  8
LAYER_1
 10
-45.08733279575245
 20
15.9812028560443
 30
0.0
  0
VERTEX
  5
737
  8
LAYER_1
 10
-45.16757693956606
 20
16.01807314677091
 30
0.0
  0
VERTEX
  5
738
  8
LAYER_1
 10
-45.26715702164802
 20
16.04887515896228
 30
0.0
  0
VERTEX
  5
739
  8
LAYER_1
 10
-45.37499882280827
 20
16.06944139009268
 30
0.0
  0
VERTEX
  5
73A
  8
LAYER_1
 10
-45.63749883323908
 20
16.10352423395044
 30
0.0
  0
VERTEX
  5
73B
  8
LAYER_1
 10
-46.64999887347221
 20
16.26791009571222
 30
0.0
  0
VERTEX
  5
73C
  8
LAYER_1
 10
-47.51383674045977
 20
16.41745258235063
 30
0.0
  0
VERTEX
  5
73D
  8
LAYER_1
 10
-48.16891495991095
 20
16.54615118051787
 30
0.0
  0
VERTEX
  5
73E
  8
LAYER_1
 10
-48.37637124568135
 20
16.58692348811293
 30
0.0
  0
VERTEX
  5
73F
  8
LAYER_1
 10
-48.5668681816916
 20
16.61377169601523
 30
0.0
  0
VERTEX
  5
740
  8
LAYER_1
 10
-48.71928774316967
 20
16.62438857041716
 30
0.0
  0
VERTEX
  5
741
  8
LAYER_1
 10
-48.81251190534359
 20
16.61646687751113
 30
0.0
  0
VERTEX
  5
742
  8
LAYER_1
 10
-48.86835864716855
 20
16.61153747263567
 30
0.0
  0
VERTEX
  5
743
  8
LAYER_1
 10
-48.94621553533598
 20
16.6242804572354
 30
0.0
  0
VERTEX
  5
744
  8
LAYER_1
 10
-49.04451861603997
 20
16.6537924315311
 30
0.0
  0
VERTEX
  5
745
  8
LAYER_1
 10
-49.16170393547456
 20
16.69916999574356
 30
0.0
  0
VERTEX
  5
746
  8
LAYER_1
 10
-49.44646547531185
 20
16.8339082948019
 30
0.0
  0
VERTEX
  5
747
  8
LAYER_1
 10
-49.7879885244004
 20
17.02126815617671
 30
0.0
  0
VERTEX
  5
748
  8
LAYER_1
 10
-50.17376145229275
 20
17.25402238163428
 30
0.0
  0
VERTEX
  5
749
  8
LAYER_1
 10
-50.59127262854143
 20
17.5249437729409
 30
0.0
  0
VERTEX
  5
74A
  8
LAYER_1
 10
-51.02801042269898
 20
17.82680513186286
 30
0.0
  0
VERTEX
  5
74B
  8
LAYER_1
 10
-51.47146320431793
 20
18.15237926016646
 30
0.0
  0
VERTEX
  5
74C
  8
LAYER_1
 10
-51.66838444640143
 20
18.29368748654188
 30
0.0
  0
VERTEX
  5
74D
  8
LAYER_1
 10
-51.74350179781899
 20
18.33937540080914
 30
0.0
  0
VERTEX
  5
74E
  8
LAYER_1
 10
-51.80678670558451
 20
18.36991194731834
 30
0.0
  0
VERTEX
  5
74F
  8
LAYER_1
 10
-51.86103647177108
 20
18.38641669971112
 30
0.0
  0
VERTEX
  5
750
  8
LAYER_1
 10
-51.90904839845175
 20
18.39000923162916
 30
0.0
  0
VERTEX
  5
751
  8
LAYER_1
 10
-51.95361978769961
 20
18.38180911671412
 30
0.0
  0
VERTEX
  5
752
  8
LAYER_1
 10
-51.99754794158772
 20
18.36293592860768
 30
0.0
  0
VERTEX
  5
753
  8
LAYER_1
 10
-52.04007931178414
 20
18.34496666312045
 30
0.0
  0
VERTEX
  5
754
  8
LAYER_1
 10
-52.08909581434416
 20
18.33365387911506
 30
0.0
  0
VERTEX
  5
755
  8
LAYER_1
 10
-52.2118516321205
 20
18.33142803743947
 30
0.0
  0
VERTEX
  5
756
  8
LAYER_1
 10
-52.37635022604781
 20
18.35711896736017
 30
0.0
  0
VERTEX
  5
757
  8
LAYER_1
 10
-52.59312642725713
 20
18.41158723265636
 30
0.0
  0
VERTEX
  5
758
  8
LAYER_1
 10
-52.78511371162367
 20
18.46922659657378
 30
0.0
  0
VERTEX
  5
759
  8
LAYER_1
 10
-52.96046446575057
 20
18.53112900349558
 30
0.0
  0
VERTEX
  5
75A
  8
LAYER_1
 10
-53.12714070479873
 20
18.60161358024029
 30
0.0
  0
VERTEX
  5
75B
  8
LAYER_1
 10
-53.29310444392907
 20
18.68499945362647
 30
0.0
  0
VERTEX
  5
75C
  8
LAYER_1
 10
-53.46631769830245
 20
18.78560575047266
 30
0.0
  0
VERTEX
  5
75D
  8
LAYER_1
 10
-53.65474248307979
 20
18.90775159759741
 30
0.0
  0
VERTEX
  5
75E
  8
LAYER_1
 10
-54.10907470448986
 20
19.23393844995678
 30
0.0
  0
VERTEX
  5
75F
  8
LAYER_1
 10
-54.68027655696323
 20
19.65382068356448
 30
0.0
  0
VERTEX
  5
760
  8
LAYER_1
 10
-54.85567255461167
 20
19.76549864168761
 30
0.0
  0
VERTEX
  5
761
  8
LAYER_1
 10
-54.92191643311689
 20
19.7980264742921
 30
0.0
  0
VERTEX
  5
762
  8
LAYER_1
 10
-54.97618027401061
 20
19.81549150191115
 30
0.0
  0
VERTEX
  5
763
  8
LAYER_1
 10
-55.02020610924369
 20
19.81825219403423
 30
0.0
  0
VERTEX
  5
764
  8
LAYER_1
 10
-55.05573597076702
 20
19.80666702015077
 30
0.0
  0
VERTEX
  5
765
  8
LAYER_1
 10
-55.08451189053146
 20
19.78109444975026
 30
0.0
  0
VERTEX
  5
766
  8
LAYER_1
 10
-55.1082759004879
 20
19.74189295232213
 30
0.0
  0
VERTEX
  5
767
  8
LAYER_1
 10
-55.14773631878022
 20
19.6240370543409
 30
0.0
  0
VERTEX
  5
768
  8
LAYER_1
 10
-55.18805348125098
 20
19.45596708212274
 30
0.0
  0
VERTEX
  5
769
  8
LAYER_1
 10
-55.42336987600258
 20
18.56250371783972
 30
0.0
  0
VERTEX
  5
76A
  8
LAYER_1
 10
-55.91205036736805
 20
16.76250364631414
 30
0.0
  0
VERTEX
  5
76B
  8
LAYER_1
 10
-56.16710225643432
 20
15.79385601389191
 30
0.0
  0
VERTEX
  5
76C
  8
LAYER_1
 10
-56.32520407006724
 20
15.20020839637084
 30
0.0
  0
VERTEX
  5
76D
  8
LAYER_1
 10
-56.30635166324965
 20
15.18636049147814
 30
0.0
  0
VERTEX
  5
76E
  8
LAYER_1
 10
-55.83749923855066
 20
14.96958328232505
 30
0.0
  0
VERTEX
  5
76F
  8
LAYER_1
 10
-55.43042215378998
 20
14.7830355914075
 30
0.0
  0
VERTEX
  5
770
  8
LAYER_1
 10
-55.11740358290555
 20
14.62898971314138
 30
0.0
  0
VERTEX
  5
771
  8
LAYER_1
 10
-54.88615038076561
 20
14.49595459426124
 30
0.0
  0
VERTEX
  5
772
  8
LAYER_1
 10
-54.79734418512113
 20
14.43372511544546
 30
0.0
  0
VERTEX
  5
773
  8
LAYER_1
 10
-54.72436940223835
 20
14.37243918150163
 30
0.0
  0
VERTEX
  5
774
  8
LAYER_1
 10
-54.66568938897579
 20
14.31066041077158
 30
0.0
  0
VERTEX
  5
775
  8
LAYER_1
 10
-54.61976750219198
 20
14.24695242159713
 30
0.0
  0
VERTEX
  5
776
  8
LAYER_1
 10
-54.58506709874543
 20
14.17987883232009
 30
0.0
  0
VERTEX
  5
777
  8
LAYER_1
 10
-54.56005153549471
 20
14.10800326128228
 30
0.0
  0
VERTEX
  5
778
  8
LAYER_1
 10
-54.53292835701475
 20
13.94410064729165
 30
0.0
  0
VERTEX
  5
779
  8
LAYER_1
 10
-54.52610482162031
 20
13.7437535263598
 30
0.0
  0
VERTEX
  5
77A
  8
LAYER_1
 10
-54.5249991863966
 20
13.42500351369381
 30
0.0
  0
VERTEX
  5
77B
  8
LAYER_1
 10
-54.19036095220258
 20
13.42500351369381
 30
0.0
  0
VERTEX
  5
77C
  8
LAYER_1
 10
-54.05887246849175
 20
13.41784261054697
 30
0.0
  0
VERTEX
  5
77D
  8
LAYER_1
 10
-53.91631152021971
 20
13.39203842686207
 30
0.0
  0
VERTEX
  5
77E
  8
LAYER_1
 10
-53.74743837542694
 20
13.3411087512725
 30
0.0
  0
VERTEX
  5
77F
  8
LAYER_1
 10
-53.5370133021539
 20
13.25857137241168
 30
0.0
  0
VERTEX
  5
780
  8
LAYER_1
 10
-53.26979656844108
 20
13.13794407891302
 30
0.0
  0
VERTEX
  5
781
  8
LAYER_1
 10
-52.93054844232896
 20
12.97274465940993
 30
0.0
  0
VERTEX
  5
782
  8
LAYER_1
 10
-51.9749990850687
 20
12.48270059692408
 30
0.0
  0
VERTEX
  5
783
  8
LAYER_1
 10
-51.18749905377626
 20
12.0727575885745
 30
0.0
  0
VERTEX
  5
784
  8
LAYER_1
 10
-51.0616716772533
 20
11.92226838381437
 30
0.0
  0
VERTEX
  5
785
  8
LAYER_1
 10
-51.00342627146739
 20
11.8617156927943
 30
0.0
  0
VERTEX
  5
786
  8
LAYER_1
 10
-50.95439752903371
 20
11.83038238259202
 30
0.0
  0
VERTEX
  5
787
  8
LAYER_1
 10
-50.91462396050049
 20
11.82828295185255
 30
0.0
  0
VERTEX
  5
788
  8
LAYER_1
 10
-50.88414407641598
 20
11.8554318992209
 30
0.0
  0
VERTEX
  5
789
  8
LAYER_1
 10
-50.86698374934799
 20
11.87465716178028
 30
0.0
  0
VERTEX
  5
78A
  8
LAYER_1
 10
-50.84195062547185
 20
11.88974552870204
 30
0.0
  0
VERTEX
  5
78B
  8
LAYER_1
 10
-50.76896352851514
 20
11.90761959820808
 30
0.0
  0
VERTEX
  5
78C
  8
LAYER_1
 10
-50.66657786798586
 20
11.90927015288981
 30
0.0
  0
VERTEX
  5
78D
  8
LAYER_1
 10
-50.53618872632405
 20
11.89491323789802
 30
0.0
  0
VERTEX
  5
78E
  8
LAYER_1
 10
-50.37919118596972
 20
11.8647648983835
 30
0.0
  0
VERTEX
  5
78F
  8
LAYER_1
 10
-50.19698032936289
 20
11.81904117949703
 30
0.0
  0
VERTEX
  5
790
  8
LAYER_1
 10
-49.99095123894359
 20
11.75795812638941
 30
0.0
  0
VERTEX
  5
791
  8
LAYER_1
 10
-49.76249899715185
 20
11.68173178421141
 30
0.0
  0
VERTEX
  5
792
  8
LAYER_1
 10
-49.51452690003767
 20
11.60603617700002
 30
0.0
  0
VERTEX
  5
793
  8
LAYER_1
 10
-49.22745251737607
 20
11.53577866136372
 30
0.0
  0
VERTEX
  5
794
  8
LAYER_1
 10
-48.93685118637225
 20
11.47879519236782
 30
0.0
  0
VERTEX
  5
795
  8
LAYER_1
 10
-48.67829824423144
 20
11.44292172507765
 30
0.0
  0
VERTEX
  5
796
  8
LAYER_1
 10
-48.44402020166412
 20
11.41267932289549
 30
0.0
  0
VERTEX
  5
797
  8
LAYER_1
 10
-48.21951389425146
 20
11.37102796186694
 30
0.0
  0
VERTEX
  5
798
  8
LAYER_1
 10
-48.03026014650478
 20
11.32346196602232
 30
0.0
  0
VERTEX
  5
799
  8
LAYER_1
 10
-47.90173978293534
 20
11.27547565939193
 30
0.0
  0
VERTEX
  5
79A
  8
LAYER_1
 10
-47.782911298291
 20
11.22733552293722
 30
0.0
  0
VERTEX
  5
79B
  8
LAYER_1
 10
-47.65190703401803
 20
11.20113393655521
 30
0.0
  0
VERTEX
  5
79C
  8
LAYER_1
 10
-47.50274942351895
 20
11.19620673272948
 30
0.0
  0
VERTEX
  5
79D
  8
LAYER_1
 10
-47.32946090019625
 20
11.2118897439436
 30
0.0
  0
VERTEX
  5
79E
  8
LAYER_1
 10
-47.122846935193
 20
11.22444043710465
 30
0.0
  0
VERTEX
  5
79F
  8
LAYER_1
 10
-46.82265347229627
 20
11.22252811322741
 30
0.0
  0
VERTEX
  5
7A0
  8
LAYER_1
 10
-46.46913823221718
 20
11.20721365894352
 30
0.0
  0
VERTEX
  5
7A1
  8
LAYER_1
 10
-46.10255893566686
 20
11.17955796088459
 30
0.0
  0
VERTEX
  5
7A2
  8
LAYER_1
 10
-45.23057812463923
 20
11.09841204314101
 30
0.0
  0
VERTEX
  5
7A3
  8
LAYER_1
 10
-45.059038464038
 20
11.0372415446369
 30
0.0
  0
VERTEX
  5
7A4
  8
LAYER_1
 10
-44.96580196976196
 20
11.01883847855397
 30
0.0
  0
VERTEX
  5
7A5
  8
LAYER_1
 10
-44.83874794979887
 20
11.01395035154166
 30
0.0
  0
VERTEX
  5
7A6
  8
LAYER_1
 10
-44.69457926845229
 20
11.02236027855586
 30
0.0
  0
SEQEND
  5
8E1
  8
LAYER_1
  0
POLYLINE
  5
77
  8
LAYER_1
 66
     1
 10
0.0
 20
0.0
 30
0.0
 70
     1
  0
VERTEX
  5
7A7
  8
LAYER_1
 10
11.44951131406242
 20
32.48506484708604
 30
0.0
  0
VERTEX
  5
7A8
  8
LAYER_1
 10
12.11250346153975
 20
32.17708117018095
 30
0.0
  0
VERTEX
  5
7A9
  8
LAYER_1
 10
12.28618407749788
 20
32.17604271446642
 30
0.0
  0
VERTEX
  5
7AA
  8
LAYER_1
 10
12.36654737849315
 20
32.18292436436046
 30
0.0
  0
VERTEX
  5
7AB
  8
LAYER_1
 10
12.45696796052012
 20
32.20242919030746
 30
0.0
  0
VERTEX
  5
7AC
  8
LAYER_1
 10
12.54637160438873
 20
32.231561917758
 30
0.0
  0
VERTEX
  5
7AD
  8
LAYER_1
 10
12.62368409090892
 20
32.26732727216269
 30
0.0
  0
VERTEX
  5
7AE
  8
LAYER_1
 10
12.7287178742223
 20
32.30393397843882
 30
0.0
  0
VERTEX
  5
7AF
  8
LAYER_1
 10
12.89360029648815
 20
32.33535751544032
 30
0.0
  0
VERTEX
  5
7B0
  8
LAYER_1
 10
13.09572947054301
 20
32.35825273952273
 30
0.0
  0
VERTEX
  5
7B1
  8
LAYER_1
 10
13.31250350922346
 20
32.3692745070416
 30
0.0
  0
VERTEX
  5
7B2
  8
LAYER_1
 10
13.58882779027542
 20
32.38734946828949
 30
0.0
  0
VERTEX
  5
7B3
  8
LAYER_1
 10
13.88315794055325
 20
32.43247841330326
 30
0.0
  0
VERTEX
  5
7B4
  8
LAYER_1
 10
14.20153588745965
 20
32.50582967791608
 30
0.0
  0
VERTEX
  5
7B5
  8
LAYER_1
 10
14.55000355839729
 20
32.60857159796113
 30
0.0
  0
VERTEX
  5
7B6
  8
LAYER_1
 10
15.28228568875891
 20
32.82758341249226
 30
0.0
  0
VERTEX
  5
7B7
  8
LAYER_1
 10
16.04234694114734
 20
33.03162438394385
 30
0.0
  0
VERTEX
  5
7B8
  8
LAYER_1
 10
16.8221902955852
 20
33.22500430047512
 30
0.0
  0
VERTEX
  5
7B9
  8
LAYER_1
 10
21.29115127711019
 20
33.22500430047512
 30
0.0
  0
VERTEX
  5
7BA
  8
LAYER_1
 10
21.38385637910643
 20
33.37500430643559
 30
0.0
  0
VERTEX
  5
7BB
  8
LAYER_1
 10
35.09544600689269
 20
33.37500430643559
 30
0.0
  0
VERTEX
  5
7BC
  8
LAYER_1
 10
35.33775353650864
 20
33.88125432655215
 30
0.0
  0
VERTEX
  5
7BD
  8
LAYER_1
 10
35.52649990628996
 20
34.2461371535513
 30
0.0
  0
VERTEX
  5
7BE
  8
LAYER_1
 10
35.59762728039032
 20
34.36285102537659
 30
0.0
  0
VERTEX
  5
7BF
  8
LAYER_1
 10
35.64003273247368
 20
34.41250434766214
 30
0.0
  0
VERTEX
  5
7C0
  8
LAYER_1
 10
35.66330159803142
 20
34.42911567644721
 30
0.0
  0
VERTEX
  5
7C1
  8
LAYER_1
 10
35.68232440485902
 20
34.45586372438508
 30
0.0
  0
VERTEX
  5
7C2
  8
LAYER_1
 10
35.69514040529509
 20
34.48905708507907
 30
0.0
  0
VERTEX
  5
7C3
  8
LAYER_1
 10
35.69978885167822
 20
34.52500435213248
 30
0.0
  0
VERTEX
  5
7C4
  8
LAYER_1
 10
35.71132302003144
 20
34.58312380201947
 30
0.0
  0
VERTEX
  5
7C5
  8
LAYER_1
 10
35.74425945524354
 20
34.68827138188462
 30
0.0
  0
VERTEX
  5
7C6
  8
LAYER_1
 10
35.86338924420851
 20
35.01143858226153
 30
0.0
  0
VERTEX
  5
7C7
  8
LAYER_1
 10
36.03527845450154
 20
35.43808125468745
 30
0.0
  0
VERTEX
  5
7C8
  8
LAYER_1
 10
36.23802732205097
 20
35.91177470058656
 30
0.0
  0
VERTEX
  5
7C9
  8
LAYER_1
 10
36.35196144689156
 20
36.20572122881017
 30
0.0
  0
VERTEX
  5
7CA
  8
LAYER_1
 10
36.39672697525602
 20
36.34567262462107
 30
0.0
  0
VERTEX
  5
7CB
  8
LAYER_1
 10
36.42517062795017
 20
36.45708543046581
 30
0.0
  0
VERTEX
  5
7CC
  8
LAYER_1
 10
36.44748939128344
 20
36.54609637805702
 30
0.0
  0
VERTEX
  5
7CD
  8
LAYER_1
 10
36.47557824069503
 20
36.62505261525681
 30
0.0
  0
VERTEX
  5
7CE
  8
LAYER_1
 10
36.50584352015473
 20
36.68537675796527
 30
0.0
  0
VERTEX
  5
7CF
  8
LAYER_1
 10
36.53469157363237
 20
36.71849142208247
 30
0.0
  0
VERTEX
  5
7D0
  8
LAYER_1
 10
36.56005133292436
 20
36.7515692614846
 30
0.0
  0
VERTEX
  5
7D1
  8
LAYER_1
 10
36.58081878168057
 20
36.81179313887973
 30
0.0
  0
VERTEX
  5
7D2
  8
LAYER_1
 10
36.59485084165098
 20
36.89060098341579
 30
0.0
  0
VERTEX
  5
7D3
  8
LAYER_1
 10
36.60000443458557
 20
36.97943072424073
 30
0.0
  0
VERTEX
  5
7D4
  8
LAYER_1
 10
36.60549798908865
 20
37.06507536946792
 30
0.0
  0
VERTEX
  5
7D5
  8
LAYER_1
 10
36.62045568699307
 20
37.1352109240101
 30
0.0
  0
VERTEX
  5
7D6
  8
LAYER_1
 10
36.64259307989162
 20
37.18259981221426
 30
0.0
  0
VERTEX
  5
7D7
  8
LAYER_1
 10
36.65564027183643
 20
37.19550251404803
 30
0.0
  0
VERTEX
  5
7D8
  8
LAYER_1
 10
36.66962571937707
 20
37.20000445842743
 30
0.0
  0
VERTEX
  5
7D9
  8
LAYER_1
 10
36.68524057575593
 20
37.20804095777021
 30
0.0
  0
VERTEX
  5
7DA
  8
LAYER_1
 10
36.70295770020836
 20
37.23107379559951
 30
0.0
  0
VERTEX
  5
7DB
  8
LAYER_1
 10
36.74224676508815
 20
37.31566852552351
 30
0.0
  0
VERTEX
  5
7DC
  8
LAYER_1
 10
36.7825889375248
 20
37.44086872581101
 30
0.0
  0
VERTEX
  5
7DD
  8
LAYER_1
 10
36.8190802410267
 20
37.59375447407365
 30
0.0
  0
VERTEX
  5
7DE
  8
LAYER_1
 10
37.01485603466147
 20
38.63011245109666
 30
0.0
  0
VERTEX
  5
7DF
  8
LAYER_1
 10
37.15778529442574
 20
39.48750454932451
 30
0.0
  0
VERTEX
  5
7E0
  8
LAYER_1
 10
37.19928067804702
 20
39.78750456124544
 30
0.0
  0
VERTEX
  5
7E1
  8
LAYER_1
 10
37.27942292529474
 20
40.77532212936089
 30
0.0
  0
VERTEX
  5
7E2
  8
LAYER_1
 10
37.30678605444309
 20
41.24478440378891
 30
0.0
  0
VERTEX
  5
7E3
  8
LAYER_1
 10
37.3125686428104
 20
41.70758022611619
 30
0.0
  0
VERTEX
  5
7E4
  8
LAYER_1
 10
37.29726099556513
 20
42.16218038307029
 30
0.0
  0
VERTEX
  5
7E5
  8
LAYER_1
 10
37.26135341787575
 20
42.60705566137875
 30
0.0
  0
VERTEX
  5
7E6
  8
LAYER_1
 10
37.2053362149107
 20
43.04067684776912
 30
0.0
  0
VERTEX
  5
7E7
  8
LAYER_1
 10
37.12969969183845
 20
43.46151472896895
 30
0.0
  0
VERTEX
  5
7E8
  8
LAYER_1
 10
37.03493415382747
 20
43.86804009170581
 30
0.0
  0
VERTEX
  5
7E9
  8
LAYER_1
 10
36.92152990604623
 20
44.25872372270722
 30
0.0
  0
VERTEX
  5
7EA
  8
LAYER_1
 10
36.78997725366319
 20
44.63203640870076
 30
0.0
  0
VERTEX
  5
7EB
  8
LAYER_1
 10
36.6407665018468
 20
44.98644893641395
 30
0.0
  0
VERTEX
  5
7EC
  8
LAYER_1
 10
36.47438795576554
 20
45.32043209257436
 30
0.0
  0
VERTEX
  5
7ED
  8
LAYER_1
 10
36.29133192058785
 20
45.63245666390954
 30
0.0
  0
VERTEX
  5
7EE
  8
LAYER_1
 10
36.09208870148221
 20
45.92099343714703
 30
0.0
  0
VERTEX
  5
7EF
  8
LAYER_1
 10
35.87714860361709
 20
46.18451319901438
 30
0.0
  0
VERTEX
  5
7F0
  8
LAYER_1
 10
35.64700193216093
 20
46.42148673623916
 30
0.0
  0
VERTEX
  5
7F1
  8
LAYER_1
 10
35.52637935170137
 20
46.52954079146294
 30
0.0
  0
VERTEX
  5
7F2
  8
LAYER_1
 10
35.40213899228222
 20
46.6303848355489
 30
0.0
  0
VERTEX
  5
7F3
  8
LAYER_1
 10
35.06250437349081
 20
46.89226226430902
 30
0.0
  0
VERTEX
  5
7F4
  8
LAYER_1
 10
14.3751135912173
 20
46.83750484138727
 30
0.0
  0
VERTEX
  5
7F5
  8
LAYER_1
 10
14.34380857008858
 20
46.93125484511256
 30
0.0
  0
VERTEX
  5
7F6
  8
LAYER_1
 10
14.33167097759354
 20
46.95061147399871
 30
0.0
  0
VERTEX
  5
7F7
  8
LAYER_1
 10
14.30935915888178
 20
46.96842651188397
 30
0.0
  0
VERTEX
  5
7F8
  8
LAYER_1
 10
14.23859500823532
 20
46.99815049469906
 30
0.0
  0
VERTEX
  5
7F9
  8
LAYER_1
 10
14.14028044900367
 20
47.01786415365223
 30
0.0
  0
VERTEX
  5
7FA
  8
LAYER_1
 10
14.02317981204132
 20
47.02500484883785
 30
0.0
  0
VERTEX
  5
7FB
  8
LAYER_1
 10
13.90718332383871
 20
47.03092281782301
 30
0.0
  0
VERTEX
  5
7FC
  8
LAYER_1
 10
13.80522886098688
 20
47.0470360997133
 30
0.0
  0
VERTEX
  5
7FD
  8
LAYER_1
 10
13.72833080168309
 20
47.07088375691092
 30
0.0
  0
VERTEX
  5
7FE
  8
LAYER_1
 10
13.68750352412462
 20
47.10000485181808
 30
0.0
  0
VERTEX
  5
7FF
  8
LAYER_1
 10
13.66966028642282
 20
47.1150707703855
 30
0.0
  0
VERTEX
  5
800
  8
LAYER_1
 10
13.63652078730936
 20
47.12912594672525
 30
0.0
  0
VERTEX
  5
801
  8
LAYER_1
 10
13.53197172507866
 20
47.15297360392287
 30
0.0
  0
VERTEX
  5
802
  8
LAYER_1
 10
13.38909377789501
 20
47.16908688581316
 30
0.0
  0
VERTEX
  5
803
  8
LAYER_1
 10
13.22312438622086
 20
47.17500485479832
 30
0.0
  0
VERTEX
  5
804
  8
LAYER_1
 10
13.01054299643803
 20
47.16794807502372
 30
0.0
  0
VERTEX
  5
805
  8
LAYER_1
 10
12.86065795304157
 20
47.14273046431838
 30
0.0
  0
VERTEX
  5
806
  8
LAYER_1
 10
12.80266982164568
 20
47.12141418890657
 30
0.0
  0
VERTEX
  5
807
  8
LAYER_1
 10
12.75248768933533
 20
47.09328111560995
 30
0.0
  0
VERTEX
  5
808
  8
LAYER_1
 10
12.66505063862313
 20
47.01352912182614
 30
0.0
  0
VERTEX
  5
809
  8
LAYER_1
 10
12.61067295201064
 20
46.94285967548982
 30
0.0
  0
VERTEX
  5
80A
  8
LAYER_1
 10
12.56614233138432
 20
46.86981100391107
 30
0.0
  0
VERTEX
  5
80B
  8
LAYER_1
 10
12.53605407420438
 20
46.80299638868215
 30
0.0
  0
VERTEX
  5
80C
  8
LAYER_1
 10
12.52500347793102
 20
46.75102911139533
 30
0.0
  0
VERTEX
  5
80D
  8
LAYER_1
 10
12.52040045148082
 20
46.72665499112827
 30
0.0
  0
VERTEX
  5
80E
  8
LAYER_1
 10
12.50727197082855
 20
46.705730522816
 30
0.0
  0
VERTEX
  5
80F
  8
LAYER_1
 10
12.45952223910773
 20
46.67414128074661
 30
0.0
  0
VERTEX
  5
810
  8
LAYER_1
 10
12.3899214671484
 20
46.65608286256872
 30
0.0
  0
VERTEX
  5
811
  8
LAYER_1
 10
12.30663683933044
 20
46.65137674566392
 30
0.0
  0
VERTEX
  5
812
  8
LAYER_1
 10
12.21783554003369
 20
46.65984440741378
 30
0.0
  0
VERTEX
  5
813
  8
LAYER_1
 10
12.13168475363803
 20
46.68130732519987
 30
0.0
  0
VERTEX
  5
814
  8
LAYER_1
 10
12.05635166452331
 20
46.71558697640376
 30
0.0
  0
VERTEX
  5
815
  8
LAYER_1
 10
12.0000034570694
 20
46.76250483840704
 30
0.0
  0
VERTEX
  5
816
  8
LAYER_1
 10
11.95053422434721
 20
46.81381045192579
 30
0.0
  0
VERTEX
  5
817
  8
LAYER_1
 10
11.89847397478503
 20
46.84798712508341
 30
0.0
  0
VERTEX
  5
818
  8
LAYER_1
 10
11.8397765684227
 20
46.86443726748207
 30
0.0
  0
VERTEX
  5
819
  8
LAYER_1
 10
11.77039586530006
 20
46.86256328872395
 30
0.0
  0
VERTEX
  5
81A
  8
LAYER_1
 10
11.68628572545696
 20
46.84176759841121
 30
0.0
  0
VERTEX
  5
81B
  8
LAYER_1
 10
11.58340000893325
 20
46.80145260614603
 30
0.0
  0
VERTEX
  5
81C
  8
LAYER_1
 10
11.30511728600335
 20
46.65987435416702
 30
0.0
  0
VERTEX
  5
81D
  8
LAYER_1
 10
11.12479863858761
 20
46.5686115743727
 30
0.0
  0
VERTEX
  5
81E
  8
LAYER_1
 10
10.93045059827109
 20
46.48492611275046
 30
0.0
  0
VERTEX
  5
81F
  8
LAYER_1
 10
10.72105099092514
 20
46.40852951437867
 30
0.0
  0
VERTEX
  5
820
  8
LAYER_1
 10
10.49557764242112
 20
46.33913332433569
 30
0.0
  0
VERTEX
  5
821
  8
LAYER_1
 10
10.25300837863038
 20
46.27644908769988
 30
0.0
  0
VERTEX
  5
822
  8
LAYER_1
 10
9.992321025424276
 20
46.22018834954962
 30
0.0
  0
VERTEX
  5
823
  8
LAYER_1
 10
9.71249340867416
 20
46.17006265496325
 30
0.0
  0
VERTEX
  5
824
  8
LAYER_1
 10
9.412503354251385
 20
46.12578354901915
 30
0.0
  0
VERTEX
  5
825
  8
LAYER_1
 10
8.812503330409527
 20
46.04566042520578
 30
0.0
  0
VERTEX
  5
826
  8
LAYER_1
 10
4.950003176927567
 20
45.95291512021819
 30
0.0
  0
VERTEX
  5
827
  8
LAYER_1
 10
4.950003176927567
 20
45.82500480115414
 30
0.0
  0
VERTEX
  5
828
  8
LAYER_1
 10
-1.116144514963239
 20
45.82500480115414
 30
0.0
  0
VERTEX
  5
829
  8
LAYER_1
 10
-1.195418572761085
 20
45.69673668121109
 30
0.0
  0
VERTEX
  5
82A
  8
LAYER_1
 10
-4.816457963902494
 20
45.65195943231981
 30
0.0
  0
VERTEX
  5
82B
  8
LAYER_1
 10
-8.442332701355099
 20
45.59650381447755
 30
0.0
  0
VERTEX
  5
82C
  8
LAYER_1
 10
-12.07499749958515
 20
45.52605304023601
 30
0.0
  0
VERTEX
  5
82D
  8
LAYER_1
 10
-15.71249764412642
 20
45.44492389704342
 30
0.0
  0
VERTEX
  5
82E
  8
LAYER_1
 10
-15.91714782075844
 20
45.20371433196244
 30
0.0
  0
VERTEX
  5
82F
  8
LAYER_1
 10
-16.00052691031077
 20
45.09833570442264
 30
0.0
  0
VERTEX
  5
830
  8
LAYER_1
 10
-16.07626508668804
 20
44.98972369035742
 30
0.0
  0
VERTEX
  5
831
  8
LAYER_1
 10
-16.13601830505276
 20
44.89066725581034
 30
0.0
  0
VERTEX
  5
832
  8
LAYER_1
 10
-16.17144252056745
 20
44.81395536682498
 30
0.0
  0
VERTEX
  5
833
  8
LAYER_1
 10
-16.24494128362965
 20
44.65353811036221
 30
0.0
  0
VERTEX
  5
834
  8
LAYER_1
 10
-16.35193748993491
 20
44.47645535341394
 30
0.0
  0
VERTEX
  5
835
  8
LAYER_1
 10
-16.41664074257893
 20
44.35278663669851
 30
0.0
  0
VERTEX
  5
836
  8
LAYER_1
 10
-16.49608403998893
 20
44.15574335029101
 30
0.0
  0
VERTEX
  5
837
  8
LAYER_1
 10
-16.58019511854251
 20
43.91244340577335
 30
0.0
  0
VERTEX
  5
838
  8
LAYER_1
 10
-16.65890171461728
 20
43.6500047147274
 30
0.0
  0
VERTEX
  5
839
  8
LAYER_1
 10
-16.83501549310918
 20
43.01250468939543
 30
0.0
  0
VERTEX
  5
83A
  8
LAYER_1
 10
-16.89250659320471
 20
42.98750468840201
 30
0.0
  0
VERTEX
  5
83B
  8
LAYER_1
 10
-16.91483628087916
 20
42.95609843715404
 30
0.0
  0
VERTEX
  5
83C
  8
LAYER_1
 10
-16.9331356358256
 20
42.88906718449046
 30
0.0
  0
VERTEX
  5
83D
  8
LAYER_1
 10
-16.9455153322969
 20
42.79625468080242
 30
0.0
  0
VERTEX
  5
83E
  8
LAYER_1
 10
-16.95008604454593
 20
42.68750467648108
 30
0.0
  0
VERTEX
  5
83F
  8
LAYER_1
 10
-16.95905588912797
 20
42.53634256109945
 30
0.0
  0
VERTEX
  5
840
  8
LAYER_1
 10
-16.98341342115948
 20
42.3280515371977
 30
0.0
  0
VERTEX
  5
841
  8
LAYER_1
 10
-17.01943997273504
 20
42.09011207461783
 30
0.0
  0
VERTEX
  5
842
  8
LAYER_1
 10
-17.06341687594923
 20
41.85000464320183
 30
0.0
  0
VERTEX
  5
843
  8
LAYER_1
 10
-17.17665935610685
 20
41.28750462085009
 30
0.0
  0
VERTEX
  5
844
  8
LAYER_1
 10
-17.2654955374923
 20
37.61250447481871
 30
0.0
  0
VERTEX
  5
845
  8
LAYER_1
 10
-17.00472285421152
 20
35.28750438243151
 30
0.0
  0
VERTEX
  5
846
  8
LAYER_1
 10
-16.97374271306512
 20
34.91250436753035
 30
0.0
  0
VERTEX
  5
847
  8
LAYER_1
 10
-16.93249531792387
 20
34.60359810525551
 30
0.0
  0
VERTEX
  5
848
  8
LAYER_1
 10
-16.90487495515041
 20
34.47533638140885
 30
0.0
  0
VERTEX
  5
849
  8
LAYER_1
 10
-16.8768300767473
 20
34.38750434666872
 30
0.0
  0
VERTEX
  5
84A
  8
LAYER_1
 10
-16.81089758157587
 20
34.23750434070826
 30
0.0
  0
VERTEX
  5
84B
  8
LAYER_1
 10
-16.51576743455559
 20
32.61577403477541
 30
0.0
  0
VERTEX
  5
84C
  8
LAYER_1
 10
-16.4445618876061
 20
32.54456848782797
 30
0.0
  0
VERTEX
  5
84D
  8
LAYER_1
 10
-12.78749752789736
 20
32.69893356766954
 30
0.0
  0
VERTEX
  5
84E
  8
LAYER_1
 10
-4.837497211992741
 20
32.85839907069817
 30
0.0
  0
VERTEX
  5
84F
  8
LAYER_1
 10
-1.762497089803219
 20
33.07199713918267
 30
0.0
  0
VERTEX
  5
850
  8
LAYER_1
 10
6.56250324100256
 20
33.23235553099212
 30
0.0
  0
VERTEX
  5
851
  8
LAYER_1
 10
7.841215510115759
 20
33.15487726915691
 30
0.0
  0
VERTEX
  5
852
  8
LAYER_1
 10
8.485464143102934
 20
33.10997738392748
 30
0.0
  0
VERTEX
  5
853
  8
LAYER_1
 10
9.058257559412368
 20
33.05700102285189
 30
0.0
  0
VERTEX
  5
854
  8
LAYER_1
 10
9.56772170202667
 20
32.99443975706332
 30
0.0
  0
VERTEX
  5
855
  8
LAYER_1
 10
10.02198251392845
 20
32.92078515769492
 30
0.0
  0
VERTEX
  5
856
  8
LAYER_1
 10
10.4291659381003
 20
32.83452879587983
 30
0.0
  0
VERTEX
  5
857
  8
LAYER_1
 10
10.79739791752485
 20
32.73416224275122
 30
0.0
  0
VERTEX
  5
858
  8
LAYER_1
 10
11.13480439518468
 20
32.61817706944223
 30
0.0
  0
SEQEND
  5
8E2
  8
LAYER_1
  0
POLYLINE
  5
78
  8
LAYER_1
 66
     1
 10
0.0
 20
0.0
 30
0.0
 70
     1
  0
VERTEX
  5
859
  8
LAYER_1
 10
-51.52499906718731
 20
45.15383303043841
 30
0.0
  0
VERTEX
  5
85A
  8
LAYER_1
 10
-51.19300686649512
 20
45.19787868493583
 30
0.0
  0
VERTEX
  5
85B
  8
LAYER_1
 10
-50.86874904111028
 20
45.21944554447899
 30
0.0
  0
VERTEX
  5
85C
  8
LAYER_1
 10
-50.74498438775481
 20
45.22625187583623
 30
0.0
  0
VERTEX
  5
85D
  8
LAYER_1
 10
-50.64363184466492
 20
45.24067439961671
 30
0.0
  0
VERTEX
  5
85E
  8
LAYER_1
 10
-50.57515039663122
 20
45.26059796101469
 30
0.0
  0
VERTEX
  5
85F
  8
LAYER_1
 10
-50.55650476600749
 20
45.27196164494346
 30
0.0
  0
VERTEX
  5
860
  8
LAYER_1
 10
-50.54999902844429
 20
45.28390740522447
 30
0.0
  0
VERTEX
  5
861
  8
LAYER_1
 10
-50.55991570833423
 20
45.30062983672484
 30
0.0
  0
VERTEX
  5
862
  8
LAYER_1
 10
-50.58833719758817
 20
45.32568359749764
 30
0.0
  0
VERTEX
  5
863
  8
LAYER_1
 10
-50.69272330169279
 20
45.39588790857314
 30
0.0
  0
VERTEX
  5
864
  8
LAYER_1
 10
-50.84721473576763
 20
45.48472594187636
 30
0.0
  0
VERTEX
  5
865
  8
LAYER_1
 10
-51.03586889482216
 20
45.58240330083264
 30
0.0
  0
VERTEX
  5
866
  8
LAYER_1
 10
-51.27939289624906
 20
45.7095798801477
 30
0.0
  0
VERTEX
  5
867
  8
LAYER_1
 10
-51.58328241599125
 20
45.87873757284362
 30
0.0
  0
VERTEX
  5
868
  8
LAYER_1
 10
-52.21711894176082
 20
46.25475070197771
 30
0.0
  0
VERTEX
  5
869
  8
LAYER_1
 10
-52.91249912232161
 20
46.68750483542681
 30
0.0
  0
VERTEX
  5
86A
  8
LAYER_1
 10
-53.03519953217514
 20
46.76250483840704
 30
0.0
  0
VERTEX
  5
86B
  8
LAYER_1
 10
-53.66877264892327
 20
47.14491416139382
 30
0.0
  0
VERTEX
  5
86C
  8
LAYER_1
 10
-54.18147885825039
 20
47.44055487285022
 30
0.0
  0
VERTEX
  5
86D
  8
LAYER_1
 10
-54.66224532480076
 20
47.69902634979575
 30
0.0
  0
VERTEX
  5
86E
  8
LAYER_1
 10
-55.19999921321869
 20
47.96992796924991
 30
0.0
  0
VERTEX
  5
86F
  8
LAYER_1
 10
-55.72341458847833
 20
48.21215885475669
 30
0.0
  0
VERTEX
  5
870
  8
LAYER_1
 10
-56.28430501578306
 20
48.44325790622555
 30
0.0
  0
VERTEX
  5
871
  8
LAYER_1
 10
-56.86778377979466
 20
48.65860227593257
 30
0.0
  0
VERTEX
  5
872
  8
LAYER_1
 10
-57.45896416517495
 20
48.85356911615383
 30
0.0
  0
VERTEX
  5
873
  8
LAYER_1
 10
-58.04295945658572
 20
49.02353557916542
 30
0.0
  0
VERTEX
  5
874
  8
LAYER_1
 10
-58.60488293868877
 20
49.16387881724341
 30
0.0
  0
VERTEX
  5
875
  8
LAYER_1
 10
-59.12984789614589
 20
49.26997598266389
 30
0.0
  0
VERTEX
  5
876
  8
LAYER_1
 10
-59.37381882958904
 20
49.30873764821384
 30
0.0
  0
VERTEX
  5
877
  8
LAYER_1
 10
-59.6029676136189
 20
49.33720422770294
 30
0.0
  0
VERTEX
  5
878
  8
LAYER_1
 10
-60.0839052538917
 20
49.38750494271517
 30
0.0
  0
VERTEX
  5
879
  8
LAYER_1
 10
-59.79820231923687
 20
48.8490595527647
 30
0.0
  0
VERTEX
  5
87A
  8
LAYER_1
 10
-59.56632851253999
 20
48.43417433253813
 30
0.0
  0
VERTEX
  5
87B
  8
LAYER_1
 10
-59.45781553107822
 20
48.2601107873791
 30
0.0
  0
VERTEX
  5
87C
  8
LAYER_1
 10
-59.34919612946929
 20
48.101263990759
 30
0.0
  0
VERTEX
  5
87D
  8
LAYER_1
 10
-59.23667853165951
 20
47.95235697160491
 30
0.0
  0
VERTEX
  5
87E
  8
LAYER_1
 10
-59.11647096159519
 20
47.80811275884389
 30
0.0
  0
VERTEX
  5
87F
  8
LAYER_1
 10
-58.83781880048811
 20
47.51250486820936
 30
0.0
  0
VERTEX
  5
880
  8
LAYER_1
 10
-58.54881005661373
 20
47.23079243157996
 30
0.0
  0
VERTEX
  5
881
  8
LAYER_1
 10
-58.28523394549222
 20
46.98943679905055
 30
0.0
  0
VERTEX
  5
882
  8
LAYER_1
 10
-58.03734499535521
 20
46.78159336206804
 30
0.0
  0
VERTEX
  5
883
  8
LAYER_1
 10
-57.79539773443433
 20
46.6004175120793
 30
0.0
  0
VERTEX
  5
884
  8
LAYER_1
 10
-57.54964669096125
 20
46.43906464053126
 30
0.0
  0
VERTEX
  5
885
  8
LAYER_1
 10
-57.29034639316758
 20
46.2906901388708
 30
0.0
  0
VERTEX
  5
886
  8
LAYER_1
 10
-57.00775136928497
 20
46.14844939854483
 30
0.0
  0
VERTEX
  5
887
  8
LAYER_1
 10
-56.69211614754509
 20
46.00549781100023
 30
0.0
  0
VERTEX
  5
888
  8
LAYER_1
 10
-56.37267616615851
 20
45.87362165586488
 30
0.0
  0
VERTEX
  5
889
  8
LAYER_1
 10
-56.04341966599958
 20
45.7506908080606
 30
0.0
  0
VERTEX
  5
88A
  8
LAYER_1
 10
-55.70635004862991
 20
45.63703547619787
 30
0.0
  0
VERTEX
  5
88B
  8
LAYER_1
 10
-55.36347071561114
 20
45.53298586888719
 30
0.0
  0
VERTEX
  5
88C
  8
LAYER_1
 10
-55.01678506850489
 20
45.43887219473906
 30
0.0
  0
VERTEX
  5
88D
  8
LAYER_1
 10
-54.66829650887279
 20
45.35502466236396
 30
0.0
  0
VERTEX
  5
88E
  8
LAYER_1
 10
-54.32000843827645
 20
45.28177348037239
 30
0.0
  0
VERTEX
  5
88F
  8
LAYER_1
 10
-53.97392425827751
 20
45.21944885737484
 30
0.0
  0
VERTEX
  5
890
  8
LAYER_1
 10
-53.6320473704376
 20
45.16838100198181
 30
0.0
  0
VERTEX
  5
891
  8
LAYER_1
 10
-53.29638117631833
 20
45.12890012280378
 30
0.0
  0
VERTEX
  5
892
  8
LAYER_1
 10
-52.96892907748133
 20
45.10133642845126
 30
0.0
  0
VERTEX
  5
893
  8
LAYER_1
 10
-52.65169447548823
 20
45.08602012753473
 30
0.0
  0
VERTEX
  5
894
  8
LAYER_1
 10
-52.34668077190065
 20
45.08328142866469
 30
0.0
  0
VERTEX
  5
895
  8
LAYER_1
 10
-52.05589136828022
 20
45.09345054045162
 30
0.0
  0
VERTEX
  5
896
  8
LAYER_1
 10
-51.78132966618857
 20
45.11685767150603
 30
0.0
  0
SEQEND
  5
8E3
  8
LAYER_1
  0
POLYLINE
  5
79
  8
LAYER_1
 66
     1
 10
0.0
 20
0.0
 30
0.0
 70
     1
  0
VERTEX
  5
897
  8
LAYER_1
 10
-36.03749845176935
 20
45.18341052420419
 30
0.0
  0
VERTEX
  5
898
  8
LAYER_1
 10
-35.71685779458323
 20
45.23809616534817
 30
0.0
  0
VERTEX
  5
899
  8
LAYER_1
 10
-35.34280837652802
 20
45.31301718751722
 30
0.0
  0
VERTEX
  5
89A
  8
LAYER_1
 10
-34.96184649466604
 20
45.3983072207317
 30
0.0
  0
VERTEX
  5
89B
  8
LAYER_1
 10
-34.62046844605965
 20
45.48409989501198
 30
0.0
  0
VERTEX
  5
89C
  8
LAYER_1
 10
-34.07336073501872
 20
45.64619570130613
 30
0.0
  0
VERTEX
  5
89D
  8
LAYER_1
 10
-33.81399135974052
 20
45.73419362923862
 30
0.0
  0
VERTEX
  5
89E
  8
LAYER_1
 10
-33.56359007286764
 20
45.82709210081126
 30
0.0
  0
VERTEX
  5
89F
  8
LAYER_1
 10
-33.32179070058292
 20
45.92509151136146
 30
0.0
  0
VERTEX
  5
8A0
  8
LAYER_1
 10
-33.08822706906922
 20
46.02839225622664
 30
0.0
  0
VERTEX
  5
8A1
  8
LAYER_1
 10
-32.86253300450936
 20
46.1371947307442
 30
0.0
  0
VERTEX
  5
8A2
  8
LAYER_1
 10
-32.64434233308621
 20
46.25169933025155
 30
0.0
  0
VERTEX
  5
8A3
  8
LAYER_1
 10
-32.43328888098262
 20
46.37210645008611
 30
0.0
  0
VERTEX
  5
8A4
  8
LAYER_1
 10
-32.22900647438142
 20
46.49861648558527
 30
0.0
  0
VERTEX
  5
8A5
  8
LAYER_1
 10
-32.03112893946548
 20
46.63142983208645
 30
0.0
  0
VERTEX
  5
8A6
  8
LAYER_1
 10
-31.83929010241762
 20
46.77074688492705
 30
0.0
  0
VERTEX
  5
8A7
  8
LAYER_1
 10
-31.65312378942071
 20
46.91676803944449
 30
0.0
  0
VERTEX
  5
8A8
  8
LAYER_1
 10
-31.4722638266576
 20
47.06969369097619
 30
0.0
  0
VERTEX
  5
8A9
  8
LAYER_1
 10
-31.29634404031113
 20
47.22972423485955
 30
0.0
  0
VERTEX
  5
8AA
  8
LAYER_1
 10
-31.12499825656414
 20
47.39706006643198
 30
0.0
  0
VERTEX
  5
8AB
  8
LAYER_1
 10
-30.78683534552766
 20
47.74827095143425
 30
0.0
  0
VERTEX
  5
8AC
  8
LAYER_1
 10
-30.65889176815682
 20
47.89304563400908
 30
0.0
  0
VERTEX
  5
8AD
  8
LAYER_1
 10
-30.54721069484876
 20
48.03191905486322
 30
0.0
  0
VERTEX
  5
8AE
  8
LAYER_1
 10
-30.44342006457688
 20
48.17588064766936
 30
0.0
  0
VERTEX
  5
8AF
  8
LAYER_1
 10
-30.33914781631458
 20
48.33591984610013
 30
0.0
  0
VERTEX
  5
8B0
  8
LAYER_1
 10
-30.09567022171226
 20
48.74818879452619
 30
0.0
  0
VERTEX
  5
8B1
  8
LAYER_1
 10
-29.77499820291996
 20
49.30887269402092
 30
0.0
  0
VERTEX
  5
8B2
  8
LAYER_1
 10
-29.77499820291996
 20
49.3531736822351
 30
0.0
  0
VERTEX
  5
8B3
  8
LAYER_1
 10
-29.79163079427861
 20
49.36927853351428
 30
0.0
  0
VERTEX
  5
8B4
  8
LAYER_1
 10
-29.83963227325982
 20
49.37697825509192
 30
0.0
  0
VERTEX
  5
8B5
  8
LAYER_1
 10
-30.01836412352142
 20
49.36928220422082
 30
0.0
  0
VERTEX
  5
8B6
  8
LAYER_1
 10
-30.28843821256778
 20
49.33432531977834
 30
0.0
  0
VERTEX
  5
8B7
  8
LAYER_1
 10
-30.62709899926196
 20
49.27634739192102
 30
0.0
  0
VERTEX
  5
8B8
  8
LAYER_1
 10
-31.01159094246699
 20
49.19958821080542
 30
0.0
  0
VERTEX
  5
8B9
  8
LAYER_1
 10
-31.4191585010459
 20
49.10828756658808
 30
0.0
  0
VERTEX
  5
8BA
  8
LAYER_1
 10
-31.82704613386173
 20
49.00668524942556
 30
0.0
  0
VERTEX
  5
8BB
  8
LAYER_1
 10
-32.21249829977751
 20
48.8990210494744
 30
0.0
  0
VERTEX
  5
8BC
  8
LAYER_1
 10
-32.96249832957983
 20
48.68233474973604
 30
0.0
  0
VERTEX
  5
8BD
  8
LAYER_1
 10
-33.24041587295304
 20
48.59336554503714
 30
0.0
  0
VERTEX
  5
8BE
  8
LAYER_1
 10
-33.58725058989432
 20
48.45918635836843
 30
0.0
  0
VERTEX
  5
8BF
  8
LAYER_1
 10
-33.98548956619467
 20
48.28813668949773
 30
0.0
  0
VERTEX
  5
8C0
  8
LAYER_1
 10
-34.41761988764505
 20
48.08855603819286
 30
0.0
  0
VERTEX
  5
8C1
  8
LAYER_1
 10
-34.86612864003645
 20
47.86878390422169
 30
0.0
  0
VERTEX
  5
8C2
  8
LAYER_1
 10
-35.31350290915987
 20
47.637159787352
 30
0.0
  0
VERTEX
  5
8C3
  8
LAYER_1
 10
-35.7422297808063
 20
47.40202318735169
 30
0.0
  0
VERTEX
  5
8C4
  8
LAYER_1
 10
-36.1347963407667
 20
47.17171360398855
 30
0.0
  0
VERTEX
  5
8C5
  8
LAYER_1
 10
-36.80979636758879
 20
46.76250483840704
 30
0.0
  0
VERTEX
  5
8C6
  8
LAYER_1
 10
-36.93749848753214
 20
46.68750483542681
 30
0.0
  0
VERTEX
  5
8C7
  8
LAYER_1
 10
-37.63287866809293
 20
46.25475070197773
 30
0.0
  0
VERTEX
  5
8C8
  8
LAYER_1
 10
-38.26671519386248
 20
45.87873757284362
 30
0.0
  0
VERTEX
  5
8C9
  8
LAYER_1
 10
-38.57060471360468
 20
45.70957988014771
 30
0.0
  0
VERTEX
  5
8CA
  8
LAYER_1
 10
-38.81412871503159
 20
45.58240330083267
 30
0.0
  0
VERTEX
  5
8CB
  8
LAYER_1
 10
-39.15727430816095
 20
45.39853586455168
 30
0.0
  0
VERTEX
  5
8CC
  8
LAYER_1
 10
-39.26166041226558
 20
45.33119782497415
 30
0.0
  0
VERTEX
  5
8CD
  8
LAYER_1
 10
-39.29999858140945
 20
45.29292172344917
 30
0.0
  0
VERTEX
  5
8CE
  8
LAYER_1
 10
-39.29300187844436
 20
45.27894261689249
 30
0.0
  0
VERTEX
  5
8CF
  8
LAYER_1
 10
-39.27250346860486
 20
45.26539702912004
 30
0.0
  0
VERTEX
  5
8D0
  8
LAYER_1
 10
-39.19395172263727
 20
45.23970543806774
 30
0.0
  0
VERTEX
  5
8D1
  8
LAYER_1
 10
-39.07024373217594
 20
45.21604500657227
 30
0.0
  0
VERTEX
  5
8D2
  8
LAYER_1
 10
-38.90727988589016
 20
45.19461379091364
 30
0.0
  0
VERTEX
  5
8D3
  8
LAYER_1
 10
-38.48718618052234
 20
45.1592312322269
 30
0.0
  0
VERTEX
  5
8D4
  8
LAYER_1
 10
-37.98087371588799
 20
45.13514221224754
 30
0.0
  0
VERTEX
  5
8D5
  8
LAYER_1
 10
-37.43554560134132
 20
45.12393118121557
 30
0.0
  0
VERTEX
  5
8D6
  8
LAYER_1
 10
-36.89840494623652
 20
45.12718258937101
 30
0.0
  0
VERTEX
  5
8D7
  8
LAYER_1
 10
-36.4166548599278
 20
45.14648088695388
 30
0.0
  0
VERTEX
  5
8D8
  8
LAYER_1
 10
-36.21130225174516
 20
45.16264275998061
 30
0.0
  0
SEQEND
  5
8E4
  8
LAYER_1
  0
ENDSEC
  0
EOF
