  0
SECTION
  2
HEADER
  9
$ACADVER
  1
AC1009
  9
$DWGCODEPAGE
  3
ansi_1252
  9
$INSBASE
 10
0.0
 20
0.0
 30
0.0
  9
$EXTMIN
 10
-72.12214182278265
 20
-66.89231438885982
 30
0.0
  9
$EXTMAX
 10
73.10636213473651
 20
69.35032241961972
 30
0.0
  9
$LIMMIN
 10
0.0
 20
0.0
  9
$LIMMAX
 10
12.0
 20
9.0
  9
$ORTHOMODE
 70
     0
  9
$REGENMODE
 70
     1
  9
$FILLMODE
 70
     1
  9
$QTEXTMODE
 70
     0
  9
$MIRRTEXT
 70
     1
  9
$DRAGMODE
 70
     2
  9
$LTSCALE
 40
1.0
  9
$OSMODE
 70
    37
  9
$ATTMODE
 70
     1
  9
$TEXTSIZE
 40
0.2
  9
$TRACEWID
 40
0.05
  9
$TEXTSTYLE
  7
STANDARD
  9
$CLAYER
  8
0
  9
$CELTYPE
  6
BYLAYER
  9
$CECOLOR
 62
   256
  9
$DIMSCALE
 40
1.0
  9
$DIMASZ
 40
0.18
  9
$DIMEXO
 40
0.0625
  9
$DIMDLI
 40
0.38
  9
$DIMRND
 40
0.0
  9
$DIMDLE
 40
0.0
  9
$DIMEXE
 40
0.18
  9
$DIMTP
 40
0.0
  9
$DIMTM
 40
0.0
  9
$DIMTXT
 40
0.18
  9
$DIMCEN
 40
0.09
  9
$DIMTSZ
 40
0.0
  9
$DIMTOL
 70
     0
  9
$DIMLIM
 70
     0
  9
$DIMTIH
 70
     1
  9
$DIMTOH
 70
     1
  9
$DIMSE1
 70
     0
  9
$DIMSE2
 70
     0
  9
$DIMTAD
 70
     0
  9
$DIMZIN
 70
     0
  9
$DIMBLK
  1

  9
$DIMASO
 70
     1
  9
$DIMSHO
 70
     1
  9
$DIMPOST
  1

  9
$DIMAPOST
  1

  9
$DIMALT
 70
     0
  9
$DIMALTD
 70
     2
  9
$DIMALTF
 40
25.4
  9
$DIMLFAC
 40
1.0
  9
$DIMTOFL
 70
     0
  9
$DIMTVP
 40
0.0
  9
$DIMTIX
 70
     0
  9
$DIMSOXD
 70
     0
  9
$DIMSAH
 70
     0
  9
$DIMBLK1
  1

  9
$DIMBLK2
  1

  9
$DIMSTYLE
  2
STANDARD
  9
$DIMCLRD
 70
     0
  9
$DIMCLRE
 70
     0
  9
$DIMCLRT
 70
     0
  9
$DIMTFAC
 40
1.0
  9
$DIMGAP
 40
0.09
  9
$LUNITS
 70
     2
  9
$LUPREC
 70
     4
  9
$SKETCHINC
 40
0.1
  9
$FILLETRAD
 40
0.5
  9
$AUNITS
 70
     0
  9
$AUPREC
 70
     0
  9
$MENU
  1
.
  9
$ELEVATION
 40
0.0
  9
$PELEVATION
 40
0.0
  9
$THICKNESS
 40
0.0
  9
$LIMCHECK
 70
     0
  9
$CHAMFERA
 40
0.0
  9
$CHAMFERB
 40
0.0
  9
$SKPOLY
 70
     0
  9
$TDCREATE
 40
2454910.5
  9
$TDUPDATE
 40
2457163.40776507
  9
$TDINDWG
 40
0.0000000116
  9
$TDUSRTIMER
 40
0.0000000116
  9
$USRTIMER
 70
     1
  9
$ANGBASE
 50
0.0
  9
$ANGDIR
 70
     0
  9
$PDMODE
 70
     0
  9
$PDSIZE
 40
0.0
  9
$PLINEWID
 40
0.0
  9
$COORDS
 70
     1
  9
$SPLFRAME
 70
     0
  9
$SPLINETYPE
 70
     6
  9
$SPLINESEGS
 70
     8
  9
$ATTDIA
 70
     0
  9
$ATTREQ
 70
     1
  9
$HANDLING
 70
     1
  9
$HANDSEED
  5
D92
  9
$SURFTAB1
 70
     6
  9
$SURFTAB2
 70
     6
  9
$SURFTYPE
 70
     6
  9
$SURFU
 70
     6
  9
$SURFV
 70
     6
  9
$UCSNAME
  2

  9
$UCSORG
 10
0.0
 20
0.0
 30
0.0
  9
$UCSXDIR
 10
1.0
 20
0.0
 30
0.0
  9
$UCSYDIR
 10
0.0
 20
1.0
 30
0.0
  9
$PUCSNAME
  2

  9
$PUCSORG
 10
0.0
 20
0.0
 30
0.0
  9
$PUCSXDIR
 10
1.0
 20
0.0
 30
0.0
  9
$PUCSYDIR
 10
0.0
 20
1.0
 30
0.0
  9
$USERI1
 70
     0
  9
$USERI2
 70
     0
  9
$USERI3
 70
     0
  9
$USERI4
 70
     0
  9
$USERI5
 70
     0
  9
$USERR1
 40
0.0
  9
$USERR2
 40
0.0
  9
$USERR3
 40
0.0
  9
$USERR4
 40
0.0
  9
$USERR5
 40
0.0
  9
$WORLDVIEW
 70
     1
  9
$SHADEDGE
 70
     3
  9
$SHADEDIF
 70
    70
  9
$TILEMODE
 70
     1
  9
$MAXACTVP
 70
    64
  9
$PLIMCHECK
 70
     0
  9
$PEXTMIN
 10
1.000000000000000E+20
 20
1.000000000000000E+20
 30
1.000000000000000E+20
  9
$PEXTMAX
 10
-1.000000000000000E+20
 20
-1.000000000000000E+20
 30
-1.000000000000000E+20
  9
$PLIMMIN
 10
0.0
 20
0.0
  9
$PLIMMAX
 10
12.0
 20
9.0
  9
$UNITMODE
 70
     0
  9
$VISRETAIN
 70
     1
  9
$PLINEGEN
 70
     0
  9
$PSLTSCALE
 70
     1
  0
ENDSEC
  0
SECTION
  2
TABLES
  0
TABLE
  2
VPORT
 70
     1
  0
VPORT
  2
*ACTIVE
 70
     0
 10
0.0
 20
0.0
 11
1.0
 21
1.0
 12
10.42990654205607
 22
4.5
 13
0.0
 23
0.0
 14
0.5
 24
0.5
 15
0.5
 25
0.5
 16
0.0
 26
0.0
 36
1.0
 17
0.0
 27
0.0
 37
0.0
 40
9.0
 41
1.972972972850329
 42
50.0
 43
0.0
 44
0.0
 50
0.0
 51
0.0
 71
     0
 72
   100
 73
     1
 74
     3
 75
     0
 76
     0
 77
     0
 78
     0
  0
ENDTAB
  0
TABLE
  2
LTYPE
 70
     2
  0
LTYPE
  2
CONTINUOUS
 70
     0
  3
Solid line
 72
    65
 73
     0
 40
0.0
  0
LTYPE
  2
CONTINUOUS2
 70
     0
  3
Solid Line
 72
    65
 73
     0
 40
0.0
  0
ENDTAB
  0
TABLE
  2
LAYER
 70
     2
  0
LAYER
  2
0
 70
     0
 62
     7
  6
CONTINUOUS
  0
LAYER
  2
LAYER_1
 70
     0
 62
    18
  6
CONTINUOUS
  0
ENDTAB
  0
TABLE
  2
STYLE
 70
     1
  0
STYLE
  2
STANDARD
 70
     0
 40
0.0
 41
1.0
 50
0.0
 71
     0
 42
0.2
  3
txt
  4

  0
ENDTAB
  0
TABLE
  2
VIEW
 70
     0
  0
ENDTAB
  0
TABLE
  2
UCS
 70
     0
  0
ENDTAB
  0
TABLE
  2
APPID
 70
     1
  0
APPID
  2
ACAD
 70
     0
  0
ENDTAB
  0
TABLE
  2
DIMSTYLE
 70
     1
  0
DIMSTYLE
  2
STANDARD
 70
     0
  3

  4

  5

  6

  7

 40
1.0
 41
0.18
 42
0.0625
 43
0.38
 44
0.18
 45
0.0
 46
0.0
 47
0.0
 48
0.0
140
0.18
141
0.09
142
0.0
143
25.4
144
1.0
145
0.0
146
1.0
147
0.09
 71
     0
 72
     0
 73
     1
 74
     1
 75
     0
 76
     0
 77
     0
 78
     0
170
     0
171
     2
172
     0
173
     0
174
     0
175
     0
176
     0
177
     0
178
     0
  0
ENDTAB
  0
ENDSEC
  0
SECTION
  2
BLOCKS
  0
BLOCK
  8
0
  2
$MODEL_SPACE
 70
     0
 10
0.0
 20
0.0
 30
0.0
  3
$MODEL_SPACE
  1

  0
ENDBLK
  5
21
  8
0
  0
BLOCK
 67
     1
  8
0
  2
$PAPER_SPACE
 70
     0
 10
0.0
 20
0.0
 30
0.0
  3
$PAPER_SPACE
  1

  0
ENDBLK
  5
1D
 67
     1
  8
0
  0
ENDSEC
  0
SECTION
  2
ENTITIES
  0
POLYLINE
  5
70
  8
LAYER_1
 66
     1
 10
0.0
 20
0.0
 30
0.0
 70
     1
  0
VERTEX
  5
88
  8
LAYER_1
 10
46.72500483691692
 20
-66.78711908441969
 30
0.0
  0
VERTEX
  5
89
  8
LAYER_1
 10
46.95066111878339
 20
-66.82558681235236
 30
0.0
  0
VERTEX
  5
8A
  8
LAYER_1
 10
47.26013829739193
 20
-66.85824308635456
 30
0.0
  0
VERTEX
  5
8B
  8
LAYER_1
 10
47.61266764254049
 20
-66.88163618549936
 30
0.0
  0
VERTEX
  5
8C
  8
LAYER_1
 10
47.96748042402704
 20
-66.89231438885982
 30
0.0
  0
VERTEX
  5
8D
  8
LAYER_1
 10
48.32485958896588
 20
-66.8889790740688
 30
0.0
  0
VERTEX
  5
8E
  8
LAYER_1
 10
48.6843766118311
 20
-66.87421655448435
 30
0.0
  0
VERTEX
  5
8F
  8
LAYER_1
 10
49.00419555346026
 20
-66.85040251276723
 30
0.0
  0
VERTEX
  5
90
  8
LAYER_1
 10
49.24248047469099
 20
-66.81991263157826
 30
0.0
  0
VERTEX
  5
91
  8
LAYER_1
 10
49.64983975915872
 20
-66.73196348959209
 30
0.0
  0
VERTEX
  5
92
  8
LAYER_1
 10
50.09386955431147
 20
-66.61421812780819
 30
0.0
  0
VERTEX
  5
93
  8
LAYER_1
 10
50.48921916065244
 20
-66.49116198923241
 30
0.0
  0
VERTEX
  5
94
  8
LAYER_1
 10
50.64196679942575
 20
-66.43529407958692
 30
0.0
  0
VERTEX
  5
95
  8
LAYER_1
 10
50.7505378786848
 20
-66.38728051687066
 30
0.0
  0
VERTEX
  5
96
  8
LAYER_1
 10
51.35573447029991
 20
-66.08392208068729
 30
0.0
  0
VERTEX
  5
97
  8
LAYER_1
 10
51.65522667549865
 20
-65.923868656086
 30
0.0
  0
VERTEX
  5
98
  8
LAYER_1
 10
51.94665283360758
 20
-65.74530074598738
 30
0.0
  0
VERTEX
  5
99
  8
LAYER_1
 10
52.22899135590229
 20
-65.54949604586501
 30
0.0
  0
VERTEX
  5
9A
  8
LAYER_1
 10
52.50122065365842
 20
-65.33773225119248
 30
0.0
  0
VERTEX
  5
9B
  8
LAYER_1
 10
52.76231913815158
 20
-65.11128705744336
 30
0.0
  0
VERTEX
  5
9C
  8
LAYER_1
 10
53.0112652206574
 20
-64.87143816009126
 30
0.0
  0
VERTEX
  5
9D
  8
LAYER_1
 10
53.2470373124515
 20
-64.61946325460976
 30
0.0
  0
VERTEX
  5
9E
  8
LAYER_1
 10
53.46861382480949
 20
-64.35664003647244
 30
0.0
  0
VERTEX
  5
9F
  8
LAYER_1
 10
53.67497316900702
 20
-64.0842462011529
 30
0.0
  0
VERTEX
  5
A0
  8
LAYER_1
 10
53.86509375631969
 20
-63.8035594441247
 30
0.0
  0
VERTEX
  5
A1
  8
LAYER_1
 10
54.03795399802313
 20
-63.51585746086145
 30
0.0
  0
VERTEX
  5
A2
  8
LAYER_1
 10
54.19253230539295
 20
-63.22241794683673
 30
0.0
  0
VERTEX
  5
A3
  8
LAYER_1
 10
54.32780708970479
 20
-62.92451859752413
 30
0.0
  0
VERTEX
  5
A4
  8
LAYER_1
 10
54.44275676223427
 20
-62.62343710839723
 30
0.0
  0
VERTEX
  5
A5
  8
LAYER_1
 10
54.536359734257
 20
-62.32045117492962
 30
0.0
  0
VERTEX
  5
A6
  8
LAYER_1
 10
54.6075944170486
 20
-62.01683849259489
 30
0.0
  0
VERTEX
  5
A7
  8
LAYER_1
 10
54.63932870152964
 20
-61.82465154270811
 30
0.0
  0
VERTEX
  5
A8
  8
LAYER_1
 10
54.66107911828448
 20
-61.6233850277893
 30
0.0
  0
VERTEX
  5
A9
  8
LAYER_1
 10
54.67310783051568
 20
-61.41462052722152
 30
0.0
  0
VERTEX
  5
AA
  8
LAYER_1
 10
54.67567700142578
 20
-61.19993962038781
 30
0.0
  0
VERTEX
  5
AB
  8
LAYER_1
 10
54.66904879421736
 20
-60.98092388667122
 30
0.0
  0
VERTEX
  5
AC
  8
LAYER_1
 10
54.65348537209294
 20
-60.75915490545482
 30
0.0
  0
VERTEX
  5
AD
  8
LAYER_1
 10
54.6292488982551
 20
-60.53621425612167
 30
0.0
  0
VERTEX
  5
AE
  8
LAYER_1
 10
54.59660153590639
 20
-60.3136835180548
 30
0.0
  0
VERTEX
  5
AF
  8
LAYER_1
 10
54.55580544824934
 20
-60.09314427063727
 30
0.0
  0
VERTEX
  5
B0
  8
LAYER_1
 10
54.50712279848653
 20
-59.87617809325215
 30
0.0
  0
VERTEX
  5
B1
  8
LAYER_1
 10
54.45081574982049
 20
-59.66436656528249
 30
0.0
  0
VERTEX
  5
B2
  8
LAYER_1
 10
54.38714646545378
 20
-59.45929126611131
 30
0.0
  0
VERTEX
  5
B3
  8
LAYER_1
 10
54.31637710858895
 20
-59.26253377512171
 30
0.0
  0
VERTEX
  5
B4
  8
LAYER_1
 10
54.23876984242857
 20
-59.07567567169671
 30
0.0
  0
VERTEX
  5
B5
  8
LAYER_1
 10
54.15458683017516
 20
-58.90029853521939
 30
0.0
  0
VERTEX
  5
B6
  8
LAYER_1
 10
54.0640902350313
 20
-58.7379839450728
 30
0.0
  0
VERTEX
  5
B7
  8
LAYER_1
 10
53.88432696107155
 20
-58.45974357257853
 30
0.0
  0
VERTEX
  5
B8
  8
LAYER_1
 10
53.68163036181452
 20
-58.18274712839532
 30
0.0
  0
VERTEX
  5
B9
  8
LAYER_1
 10
53.45796042577604
 20
-57.9090590466929
 30
0.0
  0
VERTEX
  5
BA
  8
LAYER_1
 10
53.21527714147194
 20
-57.64074376164101
 30
0.0
  0
VERTEX
  5
BB
  8
LAYER_1
 10
52.95554049741809
 20
-57.37986570740937
 30
0.0
  0
VERTEX
  5
BC
  8
LAYER_1
 10
52.68071048213031
 20
-57.12848931816769
 30
0.0
  0
VERTEX
  5
BD
  8
LAYER_1
 10
52.39274708412444
 20
-56.88867902808574
 30
0.0
  0
VERTEX
  5
BE
  8
LAYER_1
 10
52.09361029191632
 20
-56.66249927133322
 30
0.0
  0
VERTEX
  5
BF
  8
LAYER_1
 10
51.6234381761922
 20
-56.30921437086111
 30
0.0
  0
VERTEX
  5
C0
  8
LAYER_1
 10
51.39655644209652
 20
-56.1522731518539
 30
0.0
  0
VERTEX
  5
C1
  8
LAYER_1
 10
51.29475151386235
 20
-56.09412498264135
 30
0.0
  0
VERTEX
  5
C2
  8
LAYER_1
 10
51.21842327988411
 20
-56.06041028568274
 30
0.0
  0
VERTEX
  5
C3
  8
LAYER_1
 10
51.16273665469151
 20
-56.03816678950269
 30
0.0
  0
VERTEX
  5
C4
  8
LAYER_1
 10
51.1171341266163
 20
-56.01125208775657
 30
0.0
  0
VERTEX
  5
C5
  8
LAYER_1
 10
51.08632160764655
 20
-55.98305986218531
 30
0.0
  0
VERTEX
  5
C6
  8
LAYER_1
 10
51.07500500977039
 20
-55.95698379452988
 30
0.0
  0
VERTEX
  5
C7
  8
LAYER_1
 10
51.05998762319351
 20
-55.92765709628347
 30
0.0
  0
VERTEX
  5
C8
  8
LAYER_1
 10
51.01909869934553
 20
-55.89061414385559
 30
0.0
  0
VERTEX
  5
C9
  8
LAYER_1
 10
50.95858309205055
 20
-55.85060036636165
 30
0.0
  0
VERTEX
  5
CA
  8
LAYER_1
 10
50.88468565513259
 20
-55.81236119291707
 30
0.0
  0
VERTEX
  5
CB
  8
LAYER_1
 10
50.72356173056157
 20
-55.7284553872708
 30
0.0
  0
VERTEX
  5
CC
  8
LAYER_1
 10
50.60343564395671
 20
-55.64849483059701
 30
0.0
  0
VERTEX
  5
CD
  8
LAYER_1
 10
50.51250498741865
 20
-55.57134376940363
 30
0.0
  0
VERTEX
  5
CE
  8
LAYER_1
 10
49.87500496208668
 20
-55.18961582100345
 30
0.0
  0
VERTEX
  5
CF
  8
LAYER_1
 10
49.13307499698403
 20
-54.75477456691949
 30
0.0
  0
VERTEX
  5
D0
  8
LAYER_1
 10
48.35735935087821
 20
-54.31552167976318
 30
0.0
  0
VERTEX
  5
D1
  8
LAYER_1
 10
47.65609148318201
 20
-53.93213988864462
 30
0.0
  0
VERTEX
  5
D2
  8
LAYER_1
 10
47.1375048533082
 20
-53.66491192267391
 30
0.0
  0
VERTEX
  5
D3
  8
LAYER_1
 10
46.52925548197822
 20
-53.35679024390875
 30
0.0
  0
VERTEX
  5
D4
  8
LAYER_1
 10
46.29023744445203
 20
-53.22300691550239
 30
0.0
  0
VERTEX
  5
D5
  8
LAYER_1
 10
46.09158256015751
 20
-53.10075699252004
 30
0.0
  0
VERTEX
  5
D6
  8
LAYER_1
 10
45.93100986994902
 20
-52.98855177354162
 30
0.0
  0
VERTEX
  5
D7
  8
LAYER_1
 10
45.80623841468093
 20
-52.88490255714704
 30
0.0
  0
VERTEX
  5
D8
  8
LAYER_1
 10
45.71498723520759
 20
-52.78832064191621
 30
0.0
  0
VERTEX
  5
D9
  8
LAYER_1
 10
45.65497537238333
 20
-52.69731732642904
 30
0.0
  0
VERTEX
  5
DA
  8
LAYER_1
 10
45.57024928097405
 20
-52.50619659173499
 30
0.0
  0
VERTEX
  5
DB
  8
LAYER_1
 10
45.48459316861099
 20
-52.26740810432371
 30
0.0
  0
VERTEX
  5
DC
  8
LAYER_1
 10
45.39930676718213
 20
-51.98872788100283
 30
0.0
  0
VERTEX
  5
DD
  8
LAYER_1
 10
45.31568980857546
 20
-51.67793193858
 30
0.0
  0
VERTEX
  5
DE
  8
LAYER_1
 10
45.23504202467898
 20
-51.34279629386284
 30
0.0
  0
VERTEX
  5
DF
  8
LAYER_1
 10
45.15866314738069
 20
-50.99109696365896
 30
0.0
  0
VERTEX
  5
E0
  8
LAYER_1
 10
45.02391104013059
 20
-50.26911131402162
 30
0.0
  0
VERTEX
  5
E1
  8
LAYER_1
 10
44.92183134192911
 20
-49.57418312412902
 30
0.0
  0
VERTEX
  5
E2
  8
LAYER_1
 10
44.88629297594156
 20
-49.25630561860606
 30
0.0
  0
VERTEX
  5
E3
  8
LAYER_1
 10
44.86282190788015
 20
-48.96852052844218
 30
0.0
  0
VERTEX
  5
E4
  8
LAYER_1
 10
44.85271786963285
 20
-48.718603870445
 30
0.0
  0
VERTEX
  5
E5
  8
LAYER_1
 10
44.85728059308766
 20
-48.51433166142215
 30
0.0
  0
VERTEX
  5
E6
  8
LAYER_1
 10
44.87780981013256
 20
-48.36347991818127
 30
0.0
  0
VERTEX
  5
E7
  8
LAYER_1
 10
44.8944680199663
 20
-48.31051672648145
 30
0.0
  0
VERTEX
  5
E8
  8
LAYER_1
 10
44.91560525265555
 20
-48.27382465752997
 30
0.0
  0
VERTEX
  5
E9
  8
LAYER_1
 10
44.95229587318512
 20
-48.19678576331347
 30
0.0
  0
VERTEX
  5
EA
  8
LAYER_1
 10
44.98981641145156
 20
-48.06218929740179
 30
0.0
  0
VERTEX
  5
EB
  8
LAYER_1
 10
45.02376551143369
 20
-47.8889903995018
 30
0.0
  0
VERTEX
  5
EC
  8
LAYER_1
 10
45.04974181711034
 20
-47.69614420932041
 30
0.0
  0
VERTEX
  5
ED
  8
LAYER_1
 10
45.07764677767864
 20
-47.48065872097874
 30
0.0
  0
VERTEX
  5
EE
  8
LAYER_1
 10
45.09624202300029
 20
-47.38905864709061
 30
0.0
  0
VERTEX
  5
EF
  8
LAYER_1
 10
45.12018518878504
 20
-47.30617053046878
 30
0.0
  0
VERTEX
  5
F0
  8
LAYER_1
 10
45.15116583286144
 20
-47.23045700392157
 30
0.0
  0
VERTEX
  5
F1
  8
LAYER_1
 10
45.19087351305809
 20
-47.16038070025735
 30
0.0
  0
VERTEX
  5
F2
  8
LAYER_1
 10
45.24099778720354
 20
-47.09440425228446
 30
0.0
  0
VERTEX
  5
F3
  8
LAYER_1
 10
45.30322821312636
 20
-47.03099029281127
 30
0.0
  0
VERTEX
  5
F4
  8
LAYER_1
 10
45.37925434865512
 20
-46.96860145464612
 30
0.0
  0
VERTEX
  5
F5
  8
LAYER_1
 10
45.47076575161838
 20
-46.90570037059737
 30
0.0
  0
VERTEX
  5
F6
  8
LAYER_1
 10
45.70700259116271
 20
-46.77221199608246
 30
0.0
  0
VERTEX
  5
F7
  8
LAYER_1
 10
46.02545519438787
 20
-46.61822623173337
 30
0.0
  0
VERTEX
  5
F8
  8
LAYER_1
 10
46.43964002392244
 20
-46.43144414001691
 30
0.0
  0
VERTEX
  5
F9
  8
LAYER_1
 10
46.70932356820191
 20
-46.32095465999578
 30
0.0
  0
VERTEX
  5
FA
  8
LAYER_1
 10
46.80769606607974
 20
-46.28734336906014
 30
0.0
  0
VERTEX
  5
FB
  8
LAYER_1
 10
46.86322391903829
 20
-46.27499885857105
 30
0.0
  0
VERTEX
  5
FC
  8
LAYER_1
 10
46.89756372839105
 20
-46.26771758095086
 30
0.0
  0
VERTEX
  5
FD
  8
LAYER_1
 10
46.94150901854132
 20
-46.24673265506559
 30
0.0
  0
VERTEX
  5
FE
  8
LAYER_1
 10
47.05323480701892
 20
-46.16880530035174
 30
0.0
  0
VERTEX
  5
FF
  8
LAYER_1
 10
47.18843881604008
 20
-46.05152367813331
 30
0.0
  0
VERTEX
  5
100
  8
LAYER_1
 10
47.3371585771738
 20
-45.90519467211414
 30
0.0
  0
VERTEX
  5
101
  8
LAYER_1
 10
47.48943162198912
 20
-45.74012516599804
 30
0.0
  0
VERTEX
  5
102
  8
LAYER_1
 10
47.63529548205504
 20
-45.56662204348884
 30
0.0
  0
VERTEX
  5
103
  8
LAYER_1
 10
47.76478768894059
 20
-45.39499218829035
 30
0.0
  0
VERTEX
  5
104
  8
LAYER_1
 10
47.86794577421477
 20
-45.23554248410639
 30
0.0
  0
VERTEX
  5
105
  8
LAYER_1
 10
48.11250489205122
 20
-44.81249880045652
 30
0.0
  0
VERTEX
  5
106
  8
LAYER_1
 10
48.06512261451608
 20
-41.81398630590275
 30
0.0
  0
VERTEX
  5
107
  8
LAYER_1
 10
47.8510367165141
 20
-41.32805553771462
 30
0.0
  0
VERTEX
  5
108
  8
LAYER_1
 10
47.74468217367706
 20
-41.11924967687195
 30
0.0
  0
VERTEX
  5
109
  8
LAYER_1
 10
47.60425057027214
 20
-40.89312099686831
 30
0.0
  0
VERTEX
  5
10A
  8
LAYER_1
 10
47.4369502005044
 20
-40.65827749065913
 30
0.0
  0
VERTEX
  5
10B
  8
LAYER_1
 10
47.24998935857889
 20
-40.42332715119981
 30
0.0
  0
VERTEX
  5
10C
  8
LAYER_1
 10
47.05057633870068
 20
-40.19687797144577
 30
0.0
  0
VERTEX
  5
10D
  8
LAYER_1
 10
46.84591943507483
 20
-39.98753794435244
 30
0.0
  0
VERTEX
  5
10E
  8
LAYER_1
 10
46.6432269419064
 20
-39.80391506287523
 30
0.0
  0
VERTEX
  5
10F
  8
LAYER_1
 10
46.44970715340045
 20
-39.65461731996956
 30
0.0
  0
VERTEX
  5
110
  8
LAYER_1
 10
46.30126792031207
 20
-39.562899461903
 30
0.0
  0
VERTEX
  5
111
  8
LAYER_1
 10
46.11754979500132
 20
-39.4659432594916
 30
0.0
  0
VERTEX
  5
112
  8
LAYER_1
 10
45.92191470564425
 20
-39.37530165674784
 30
0.0
  0
VERTEX
  5
113
  8
LAYER_1
 10
45.73772458041685
 20
-39.30252759768422
 30
0.0
  0
VERTEX
  5
114
  8
LAYER_1
 10
45.32395407430646
 20
-39.15709897735438
 30
0.0
  0
VERTEX
  5
115
  8
LAYER_1
 10
44.35572938930153
 20
-39.03160597044909
 30
0.0
  0
VERTEX
  5
116
  8
LAYER_1
 10
43.82129854161599
 20
-38.96944743754906
 30
0.0
  0
VERTEX
  5
117
  8
LAYER_1
 10
43.60516558137204
 20
-38.95246788226719
 30
0.0
  0
VERTEX
  5
118
  8
LAYER_1
 10
43.40607690532343
 20
-38.94459132744811
 30
0.0
  0
VERTEX
  5
119
  8
LAYER_1
 10
43.21127449481722
 20
-38.94559516785482
 30
0.0
  0
VERTEX
  5
11A
  8
LAYER_1
 10
43.00800033120052
 20
-38.95525679825036
 30
0.0
  0
VERTEX
  5
11B
  8
LAYER_1
 10
42.52500467002392
 20
-38.99966300805992
 30
0.0
  0
VERTEX
  5
11C
  8
LAYER_1
 10
41.75062963925302
 20
-39.09808896013989
 30
0.0
  0
VERTEX
  5
11D
  8
LAYER_1
 10
41.3864694685326
 20
-39.15321150381473
 30
0.0
  0
VERTEX
  5
11E
  8
LAYER_1
 10
41.10000461339951
 20
-39.2033619313521
 30
0.0
  0
VERTEX
  5
11F
  8
LAYER_1
 10
40.54512878070546
 20
-39.30182212619221
 30
0.0
  0
VERTEX
  5
120
  8
LAYER_1
 10
40.31971270340087
 20
-39.33292069234701
 30
0.0
  0
VERTEX
  5
121
  8
LAYER_1
 10
40.12679068658774
 20
-39.35209513497225
 30
0.0
  0
VERTEX
  5
122
  8
LAYER_1
 10
39.96472235611344
 20
-39.35946812705339
 30
0.0
  0
VERTEX
  5
123
  8
LAYER_1
 10
39.83186733782535
 20
-39.35516234157589
 30
0.0
  0
VERTEX
  5
124
  8
LAYER_1
 10
39.72658525757085
 20
-39.3393004515252
 30
0.0
  0
VERTEX
  5
125
  8
LAYER_1
 10
39.64723574119731
 20
-39.3120051298868
 30
0.0
  0
VERTEX
  5
126
  8
LAYER_1
 10
39.48750454932451
 20
-39.2333181660988
 30
0.0
  0
VERTEX
  5
127
  8
LAYER_1
 10
37.76250448077917
 20
-38.68451797439786
 30
0.0
  0
VERTEX
  5
128
  8
LAYER_1
 10
37.61250447481871
 20
-38.62001388903373
 30
0.0
  0
VERTEX
  5
129
  8
LAYER_1
 10
37.38539509079419
 20
-38.54231177883229
 30
0.0
  0
VERTEX
  5
12A
  8
LAYER_1
 10
37.05000445246696
 20
-38.4460762720508
 30
0.0
  0
VERTEX
  5
12B
  8
LAYER_1
 10
35.92500440776348
 20
-38.13867525986811
 30
0.0
  0
VERTEX
  5
12C
  8
LAYER_1
 10
35.39287776248167
 20
-37.99754195534409
 30
0.0
  0
VERTEX
  5
12D
  8
LAYER_1
 10
34.81527967200047
 20
-37.85871511861006
 30
0.0
  0
VERTEX
  5
12E
  8
LAYER_1
 10
34.14566892369628
 20
-37.71152152706426
 30
0.0
  0
VERTEX
  5
12F
  8
LAYER_1
 10
33.33750430494547
 20
-37.54528795810489
 30
0.0
  0
VERTEX
  5
130
  8
LAYER_1
 10
32.40000426769257
 20
-37.34899846737735
 30
0.0
  0
VERTEX
  5
131
  8
LAYER_1
 10
32.06250425428152
 20
-37.27319292967348
 30
0.0
  0
VERTEX
  5
132
  8
LAYER_1
 10
30.63750419765711
 20
-37.11985223151837
 30
0.0
  0
VERTEX
  5
133
  8
LAYER_1
 10
27.97500409185886
 20
-36.82704076165971
 30
0.0
  0
VERTEX
  5
134
  8
LAYER_1
 10
25.65000399947166
 20
-36.56980076146564
 30
0.0
  0
VERTEX
  5
135
  8
LAYER_1
 10
24.5625039562583
 20
-36.45203153297513
 30
0.0
  0
VERTEX
  5
136
  8
LAYER_1
 10
24.1125039383769
 20
-36.36707470809034
 30
0.0
  0
VERTEX
  5
137
  8
LAYER_1
 10
22.57500387728214
 20
-36.18402779931169
 30
0.0
  0
VERTEX
  5
138
  8
LAYER_1
 10
20.51899181907472
 20
-35.92821899120146
 30
0.0
  0
VERTEX
  5
139
  8
LAYER_1
 10
17.77500368654728
 20
-35.55692064768005
 30
0.0
  0
VERTEX
  5
13A
  8
LAYER_1
 10
15.83955960035942
 20
-35.28639119315745
 30
0.0
  0
VERTEX
  5
13B
  8
LAYER_1
 10
14.15273658983783
 20
-35.04175413244468
 30
0.0
  0
VERTEX
  5
13C
  8
LAYER_1
 10
12.61767206173333
 20
-34.80864658633736
 30
0.0
  0
VERTEX
  5
13D
  8
LAYER_1
 10
11.13750342279673
 20
-34.57270567563111
 30
0.0
  0
VERTEX
  5
13E
  8
LAYER_1
 10
9.07500334084034
 20
-34.23670703545638
 30
0.0
  0
VERTEX
  5
13F
  8
LAYER_1
 10
8.39766365256673
 20
-34.12313592178963
 30
0.0
  0
VERTEX
  5
140
  8
LAYER_1
 10
7.805864634221905
 20
-34.01677593572883
 30
0.0
  0
VERTEX
  5
141
  8
LAYER_1
 10
7.298018404100569
 20
-33.91725596464563
 30
0.0
  0
VERTEX
  5
142
  8
LAYER_1
 10
6.87253708049742
 20
-33.82420489591166
 30
0.0
  0
VERTEX
  5
143
  8
LAYER_1
 10
6.52783278170716
 20
-33.73725161689854
 30
0.0
  0
VERTEX
  5
144
  8
LAYER_1
 10
6.262317626024486
 20
-33.65602501497789
 30
0.0
  0
VERTEX
  5
145
  8
LAYER_1
 10
6.0744037317441
 20
-33.58015397752133
 30
0.0
  0
VERTEX
  5
146
  8
LAYER_1
 10
6.009051044596859
 20
-33.54411082277072
 30
0.0
  0
VERTEX
  5
147
  8
LAYER_1
 10
5.962503217160702
 20
-33.5092673919005
 30
0.0
  0
VERTEX
  5
148
  8
LAYER_1
 10
5.950959255268186
 20
-33.48864874268507
 30
0.0
  0
VERTEX
  5
149
  8
LAYER_1
 10
5.952407537302885
 20
-33.46033227157181
 30
0.0
  0
VERTEX
  5
14A
  8
LAYER_1
 10
5.966640049391587
 20
-33.42460956937496
 30
0.0
  0
VERTEX
  5
14B
  8
LAYER_1
 10
5.993448777661079
 20
-33.38177222690881
 30
0.0
  0
VERTEX
  5
14C
  8
LAYER_1
 10
6.083962827249587
 20
-33.27591998442566
 30
0.0
  0
VERTEX
  5
14D
  8
LAYER_1
 10
6.222285575082708
 20
-33.14510827063654
 30
0.0
  0
VERTEX
  5
14E
  8
LAYER_1
 10
6.474473705274136
 20
-32.93668687160805
 30
0.0
  0
VERTEX
  5
14F
  8
LAYER_1
 10
6.563446070508057
 20
-32.87328434424872
 30
0.0
  0
VERTEX
  5
150
  8
LAYER_1
 10
6.610678447658898
 20
-32.84999832510948
 30
0.0
  0
VERTEX
  5
151
  8
LAYER_1
 10
6.639314577446629
 20
-32.84224990722971
 30
0.0
  0
VERTEX
  5
152
  8
LAYER_1
 10
6.677653595899772
 20
-32.82115272983428
 30
0.0
  0
VERTEX
  5
153
  8
LAYER_1
 10
6.763396106128198
 20
-32.75180055395986
 30
0.0
  0
VERTEX
  5
154
  8
LAYER_1
 10
6.862503252923489
 20
-32.65360278281025
 30
0.0
  0
VERTEX
  5
155
  8
LAYER_1
 10
8.637883735710375
 20
-31.64999827742577
 30
0.0
  0
VERTEX
  5
156
  8
LAYER_1
 10
8.66672087348448
 20
-31.64999827742577
 30
0.0
  0
VERTEX
  5
157
  8
LAYER_1
 10
8.803404074727215
 20
-31.5973872358829
 30
0.0
  0
VERTEX
  5
158
  8
LAYER_1
 10
9.091530684245086
 20
-31.4708968594075
 30
0.0
  0
VERTEX
  5
159
  8
LAYER_1
 10
9.96193922795655
 20
-31.08448492359651
 30
0.0
  0
VERTEX
  5
15A
  8
LAYER_1
 10
10.19264170689028
 20
-30.99128741381941
 30
0.0
  0
VERTEX
  5
15B
  8
LAYER_1
 10
10.35000339150429
 20
-30.93809230360993
 30
0.0
  0
VERTEX
  5
15C
  8
LAYER_1
 10
10.54851902439259
 20
-30.86996998401229
 30
0.0
  0
VERTEX
  5
15D
  8
LAYER_1
 10
10.76250340789557
 20
-30.78311001932304
 30
0.0
  0
VERTEX
  5
15E
  8
LAYER_1
 10
11.04104981034863
 20
-30.66900450886902
 30
0.0
  0
VERTEX
  5
15F
  8
LAYER_1
 10
11.4026732094519
 20
-30.53669449116386
 30
0.0
  0
VERTEX
  5
160
  8
LAYER_1
 10
11.83501598069916
 20
-30.39003977183626
 30
0.0
  0
VERTEX
  5
161
  8
LAYER_1
 10
12.32572049958419
 20
-30.23290015651492
 30
0.0
  0
VERTEX
  5
162
  8
LAYER_1
 10
13.43278428224266
 20
-29.90260546040574
 30
0.0
  0
VERTEX
  5
163
  8
LAYER_1
 10
14.62500356137753
 20
-29.57668884786584
 30
0.0
  0
VERTEX
  5
164
  8
LAYER_1
 10
15.04647391474083
 20
-29.47148257655747
 30
0.0
  0
VERTEX
  5
165
  8
LAYER_1
 10
15.52153289557642
 20
-29.3615615725382
 30
0.0
  0
VERTEX
  5
166
  8
LAYER_1
 10
16.61654215313902
 20
-29.13074772212435
 30
0.0
  0
VERTEX
  5
167
  8
LAYER_1
 10
17.87828216101446
 20
-28.89059200813902
 30
0.0
  0
VERTEX
  5
168
  8
LAYER_1
 10
19.27500374615192
 20
-28.64743914209695
 30
0.0
  0
VERTEX
  5
169
  8
LAYER_1
 10
20.13750378042459
 20
-28.50353190919864
 30
0.0
  0
VERTEX
  5
16A
  8
LAYER_1
 10
21.56250383704901
 20
-28.31191260727278
 30
0.0
  0
VERTEX
  5
16B
  8
LAYER_1
 10
22.8773476392962
 20
-28.14476072481015
 30
0.0
  0
VERTEX
  5
16C
  8
LAYER_1
 10
24.03750393539667
 20
-28.0119673462746
 30
0.0
  0
VERTEX
  5
16D
  8
LAYER_1
 10
25.68750400096178
 20
-27.82736614305548
 30
0.0
  0
VERTEX
  5
16E
  8
LAYER_1
 10
26.28750402480364
 20
-27.75109089890869
 30
0.0
  0
VERTEX
  5
16F
  8
LAYER_1
 10
27.67500407993793
 20
-27.67413990485638
 30
0.0
  0
VERTEX
  5
170
  8
LAYER_1
 10
28.93031662981957
 20
-27.59768189726028
 30
0.0
  0
VERTEX
  5
171
  8
LAYER_1
 10
30.00000417232513
 20
-27.52191616851758
 30
0.0
  0
VERTEX
  5
172
  8
LAYER_1
 10
30.93750420957804
 20
-27.44664342623106
 30
0.0
  0
VERTEX
  5
173
  8
LAYER_1
 10
34.12500433623791
 20
-27.37630219229143
 30
0.0
  0
VERTEX
  5
174
  8
LAYER_1
 10
35.70453833476635
 20
-27.35000932584047
 30
0.0
  0
VERTEX
  5
175
  8
LAYER_1
 10
37.19370829118161
 20
-27.34328839869297
 30
0.0
  0
VERTEX
  5
176
  8
LAYER_1
 10
38.62040132861205
 20
-27.35619860470754
 30
0.0
  0
VERTEX
  5
177
  8
LAYER_1
 10
40.01250457018614
 20
-27.38879913774284
 30
0.0
  0
VERTEX
  5
178
  8
LAYER_1
 10
41.4338174990361
 20
-27.42337038764352
 30
0.0
  0
VERTEX
  5
179
  8
LAYER_1
 10
42.75366321653234
 20
-27.43405974298984
 30
0.0
  0
VERTEX
  5
17A
  8
LAYER_1
 10
44.0998046663623
 20
-27.42074120461442
 30
0.0
  0
VERTEX
  5
17B
  8
LAYER_1
 10
45.60000479221344
 20
-27.3832887733499
 30
0.0
  0
VERTEX
  5
17C
  8
LAYER_1
 10
48.48750490695238
 20
-27.29494022956592
 30
0.0
  0
VERTEX
  5
17D
  8
LAYER_1
 10
50.21250497549772
 20
-27.15293964619657
 30
0.0
  0
VERTEX
  5
17E
  8
LAYER_1
 10
51.67500503361225
 20
-27.00183862640435
 30
0.0
  0
VERTEX
  5
17F
  8
LAYER_1
 10
52.87967776306523
 20
-26.86916255890606
 30
0.0
  0
VERTEX
  5
180
  8
LAYER_1
 10
54.03258898566473
 20
-26.72430149428242
 30
0.0
  0
VERTEX
  5
181
  8
LAYER_1
 10
55.18795827917664
 20
-26.55999330548177
 30
0.0
  0
VERTEX
  5
182
  8
LAYER_1
 10
56.40000522136688
 20
-26.36897586545246
 30
0.0
  0
VERTEX
  5
183
  8
LAYER_1
 10
57.41084707213018
 20
-26.19632092538932
 30
0.0
  0
VERTEX
  5
184
  8
LAYER_1
 10
58.38317843593145
 20
-26.01168618069521
 30
0.0
  0
VERTEX
  5
185
  8
LAYER_1
 10
59.53579823901657
 20
-25.77130968288307
 30
0.0
  0
VERTEX
  5
186
  8
LAYER_1
 10
61.0875054076314
 20
-25.43142948346585
 30
0.0
  0
VERTEX
  5
187
  8
LAYER_1
 10
61.76250543445349
 20
-25.28185679285094
 30
0.0
  0
VERTEX
  5
188
  8
LAYER_1
 10
64.34061894362242
 20
-24.30713109270991
 30
0.0
  0
VERTEX
  5
189
  8
LAYER_1
 10
64.61250554770231
 20
-24.16510832255508
 30
0.0
  0
VERTEX
  5
18A
  8
LAYER_1
 10
65.47500558197498
 20
-23.74080214109959
 30
0.0
  0
VERTEX
  5
18B
  8
LAYER_1
 10
66.05334142893787
 20
-23.44701389919739
 30
0.0
  0
VERTEX
  5
18C
  8
LAYER_1
 10
66.57651957911266
 20
-23.16059820805682
 30
0.0
  0
VERTEX
  5
18D
  8
LAYER_1
 10
67.05345036958275
 20
-22.87535748059454
 30
0.0
  0
VERTEX
  5
18E
  8
LAYER_1
 10
67.49304413743151
 20
-22.58509412972721
 30
0.0
  0
VERTEX
  5
18F
  8
LAYER_1
 10
67.90421121974234
 20
-22.2836105683715
 30
0.0
  0
VERTEX
  5
190
  8
LAYER_1
 10
68.29586195359863
 20
-21.96470920944406
 30
0.0
  0
VERTEX
  5
191
  8
LAYER_1
 10
68.67690667608375
 20
-21.62219246586156
 30
0.0
  0
VERTEX
  5
192
  8
LAYER_1
 10
69.05625572428107
 20
-21.24986275054066
 30
0.0
  0
VERTEX
  5
193
  8
LAYER_1
 10
69.60000574588776
 20
-20.69495077557826
 30
0.0
  0
VERTEX
  5
194
  8
LAYER_1
 10
69.60000574588776
 20
-20.62783144903376
 30
0.0
  0
VERTEX
  5
195
  8
LAYER_1
 10
69.6075796567559
 20
-20.59395009972216
 30
0.0
  0
VERTEX
  5
196
  8
LAYER_1
 10
69.62820169129792
 20
-20.55131570029089
 30
0.0
  0
VERTEX
  5
197
  8
LAYER_1
 10
69.69599194302876
 20
-20.46160497569503
 30
0.0
  0
VERTEX
  5
198
  8
LAYER_1
 10
69.7576642139075
 20
-20.38748466466051
 30
0.0
  0
VERTEX
  5
199
  8
LAYER_1
 10
69.82291628354349
 20
-20.28976243836386
 30
0.0
  0
VERTEX
  5
19A
  8
LAYER_1
 10
69.96090174721223
 20
-20.03275543681923
 30
0.0
  0
VERTEX
  5
19B
  8
LAYER_1
 10
70.10343219028512
 20
-19.70907036473122
 30
0.0
  0
VERTEX
  5
19C
  8
LAYER_1
 10
70.2439914690123
 20
-19.33719361576989
 30
0.0
  0
VERTEX
  5
19D
  8
LAYER_1
 10
70.3760634396439
 20
-18.9356115836053
 30
0.0
  0
VERTEX
  5
19E
  8
LAYER_1
 10
70.4931319584301
 20
-18.52281066190752
 30
0.0
  0
VERTEX
  5
19F
  8
LAYER_1
 10
70.58868088162097
 20
-18.11727724434663
 30
0.0
  0
VERTEX
  5
1A0
  8
LAYER_1
 10
70.6561940654667
 20
-17.73749772459269
 30
0.0
  0
VERTEX
  5
1A1
  8
LAYER_1
 10
70.74155727290025
 20
-17.13749770075083
 30
0.0
  0
VERTEX
  5
1A2
  8
LAYER_1
 10
70.86867889106998
 20
-12.48749751597643
 30
0.0
  0
VERTEX
  5
1A3
  8
LAYER_1
 10
70.91766258281834
 20
-12.20526428346518
 30
0.0
  0
VERTEX
  5
1A4
  8
LAYER_1
 10
70.93077606799075
 20
-12.10375569341312
 30
0.0
  0
VERTEX
  5
1A5
  8
LAYER_1
 10
70.93044467691224
 20
-12.00374646113301
 30
0.0
  0
VERTEX
  5
1A6
  8
LAYER_1
 10
70.91247008902326
 20
-11.89333054034689
 30
0.0
  0
VERTEX
  5
1A7
  8
LAYER_1
 10
70.87265398376424
 20
-11.76060188477683
 30
0.0
  0
VERTEX
  5
1A8
  8
LAYER_1
 10
70.80679804057559
 20
-11.59365444814487
 30
0.0
  0
VERTEX
  5
1A9
  8
LAYER_1
 10
70.71070393889775
 20
-11.38058218417308
 30
0.0
  0
VERTEX
  5
1AA
  8
LAYER_1
 10
70.41100797783619
 20
-10.76843898909819
 30
0.0
  0
VERTEX
  5
1AB
  8
LAYER_1
 10
70.34127540924754
 20
-10.63861503196419
 30
0.0
  0
VERTEX
  5
1AC
  8
LAYER_1
 10
70.25830730194109
 20
-10.50110417718422
 30
0.0
  0
VERTEX
  5
1AD
  8
LAYER_1
 10
70.05696784125558
 20
-10.20779562987341
 30
0.0
  0
VERTEX
  5
1AE
  8
LAYER_1
 10
69.81559633594125
 20
-9.898061057539902
 30
0.0
  0
VERTEX
  5
1AF
  8
LAYER_1
 10
69.54279952615961
 20
-9.581448170557813
 30
0.0
  0
VERTEX
  5
1B0
  8
LAYER_1
 10
69.24718415207224
 20
-9.267504679301274
 30
0.0
  0
VERTEX
  5
1B1
  8
LAYER_1
 10
68.93735695384069
 20
-8.965778294144409
 30
0.0
  0
VERTEX
  5
1B2
  8
LAYER_1
 10
68.62192467162649
 20
-8.685816725461347
 30
0.0
  0
VERTEX
  5
1B3
  8
LAYER_1
 10
68.30949404559118
 20
-8.437167683626214
 30
0.0
  0
VERTEX
  5
1B4
  8
LAYER_1
 10
67.76250567287207
 20
-8.029120060037357
 30
0.0
  0
VERTEX
  5
1B5
  8
LAYER_1
 10
67.68046495696578
 20
-7.960039815467127
 30
0.0
  0
VERTEX
  5
1B6
  8
LAYER_1
 10
67.54748253271492
 20
-7.872786488549645
 30
0.0
  0
VERTEX
  5
1B7
  8
LAYER_1
 10
67.34296494355473
 20
-7.760013514080711
 30
0.0
  0
VERTEX
  5
1B8
  8
LAYER_1
 10
67.15153118925429
 20
-7.652455672979874
 30
0.0
  0
VERTEX
  5
1B9
  8
LAYER_1
 10
67.08472352720719
 20
-7.608002476540339
 30
0.0
  0
VERTEX
  5
1BA
  8
LAYER_1
 10
67.05000564455986
 20
-7.577740858202716
 30
0.0
  0
VERTEX
  5
1BB
  8
LAYER_1
 10
66.99697829870274
 20
-7.537536072069797
 30
0.0
  0
VERTEX
  5
1BC
  8
LAYER_1
 10
66.88031813781708
 20
-7.466009894009369
 30
0.0
  0
VERTEX
  5
1BD
  8
LAYER_1
 10
66.52500562369823
 20
-7.269455778780213
 30
0.0
  0
VERTEX
  5
1BE
  8
LAYER_1
 10
66.16969310957938
 20
-7.076963226587717
 30
0.0
  0
VERTEX
  5
1BF
  8
LAYER_1
 10
66.00000560283661
 20
-6.974997296929359
 30
0.0
  0
VERTEX
  5
1C0
  8
LAYER_1
 10
65.877590815987
 20
-6.903901208847992
 30
0.0
  0
VERTEX
  5
1C1
  8
LAYER_1
 10
65.60288643761865
 20
-6.765829726084565
 30
0.0
  0
VERTEX
  5
1C2
  8
LAYER_1
 10
64.8000055551529
 20
-6.388218021140105
 30
0.0
  0
VERTEX
  5
1C3
  8
LAYER_1
 10
64.28302869264488
 20
-6.156820361015927
 30
0.0
  0
VERTEX
  5
1C4
  8
LAYER_1
 10
63.89238497317852
 20
-5.990633194724097
 30
0.0
  0
VERTEX
  5
1C5
  8
LAYER_1
 10
63.60867653091578
 20
-5.881743896401422
 30
0.0
  0
VERTEX
  5
1C6
  8
LAYER_1
 10
63.4125055000186
 20
-5.822239840184707
 30
0.0
  0
VERTEX
  5
1C7
  8
LAYER_1
 10
62.70000547170639
 20
-5.629401100049833
 30
0.0
  0
VERTEX
  5
1C8
  8
LAYER_1
 10
62.39945432721576
 20
-5.549024230025922
 30
0.0
  0
VERTEX
  5
1C9
  8
LAYER_1
 10
62.080826950732
 20
-5.474861213430076
 30
0.0
  0
VERTEX
  5
1CA
  8
LAYER_1
 10
61.74683964055119
 20
-5.407349775157629
 30
0.0
  0
VERTEX
  5
1CB
  8
LAYER_1
 10
61.40020869496941
 20
-5.34692764010391
 30
0.0
  0
VERTEX
  5
1CC
  8
LAYER_1
 10
61.04365041228272
 20
-5.294032533164254
 30
0.0
  0
VERTEX
  5
1CD
  8
LAYER_1
 10
60.67988109078718
 20
-5.24910217923399
 30
0.0
  0
VERTEX
  5
1CE
  8
LAYER_1
 10
60.31161702877888
 20
-5.21257430320845
 30
0.0
  0
VERTEX
  5
1CF
  8
LAYER_1
 10
59.94157452455389
 20
-5.184886629982969
 30
0.0
  0
VERTEX
  5
1D0
  8
LAYER_1
 10
59.02779586341029
 20
-5.127787761158004
 30
0.0
  0
VERTEX
  5
1D1
  8
LAYER_1
 10
58.94456119417518
 20
-5.044553091913784
 30
0.0
  0
VERTEX
  5
1D2
  8
LAYER_1
 10
59.10829483705274
 20
-3.697928677904358
 30
0.0
  0
VERTEX
  5
1D3
  8
LAYER_1
 10
59.13634434989467
 20
-1.162497065961361
 30
0.0
  0
VERTEX
  5
1D4
  8
LAYER_1
 10
58.96991785547814
 20
-0.6866698652018073
 30
0.0
  0
VERTEX
  5
1D5
  8
LAYER_1
 10
58.84670839124203
 20
-0.3617228043078777
 30
0.0
  0
VERTEX
  5
1D6
  8
LAYER_1
 10
58.7805893767886
 20
-0.2136199937961607
 30
0.0
  0
VERTEX
  5
1D7
  8
LAYER_1
 10
58.70521297464198
 20
-0.0632683952043944
 30
0.0
  0
VERTEX
  5
1D8
  8
LAYER_1
 10
58.50794440886047
 20
0.2796689703299287
 30
0.0
  0
VERTEX
  5
1D9
  8
LAYER_1
 10
58.21741549707997
 20
0.7380649005163775
 30
0.0
  0
VERTEX
  5
1DA
  8
LAYER_1
 10
58.12084684999931
 20
0.8799613685114875
 30
0.0
  0
VERTEX
  5
1DB
  8
LAYER_1
 10
58.01566067501604
 20
1.020843638844957
 30
0.0
  0
VERTEX
  5
1DC
  8
LAYER_1
 10
57.77983618344471
 20
1.299231992676161
 30
0.0
  0
VERTEX
  5
1DD
  8
LAYER_1
 10
57.51074290657216
 20
1.572562774308368
 30
0.0
  0
VERTEX
  5
1DE
  8
LAYER_1
 10
57.20918172860452
 20
1.840168796039954
 30
0.0
  0
VERTEX
  5
1DF
  8
LAYER_1
 10
56.87595353374793
 20
2.101382870169298
 30
0.0
  0
VERTEX
  5
1E0
  8
LAYER_1
 10
56.51185920620856
 20
2.355537808994776
 30
0.0
  0
VERTEX
  5
1E1
  8
LAYER_1
 10
56.11769963019253
 20
2.601966424814767
 30
0.0
  0
VERTEX
  5
1E2
  8
LAYER_1
 10
55.69427568990602
 20
2.840001529927648
 30
0.0
  0
VERTEX
  5
1E3
  8
LAYER_1
 10
55.35722475635303
 20
3.025936371234531
 30
0.0
  0
VERTEX
  5
1E4
  8
LAYER_1
 10
55.1692756690444
 20
3.140838033555283
 30
0.0
  0
VERTEX
  5
1E5
  8
LAYER_1
 10
55.10578856864958
 20
3.176168709188046
 30
0.0
  0
VERTEX
  5
1E6
  8
LAYER_1
 10
54.9933750769179
 20
3.224820548506878
 30
0.0
  0
VERTEX
  5
1E7
  8
LAYER_1
 10
54.68529180199428
 20
3.336417865287856
 30
0.0
  0
VERTEX
  5
1E8
  8
LAYER_1
 10
54.34312878101308
 20
3.45943675329063
 30
0.0
  0
VERTEX
  5
1E9
  8
LAYER_1
 10
54.08529177815242
 20
3.570879641605188
 30
0.0
  0
VERTEX
  5
1EA
  8
LAYER_1
 10
53.91588763921258
 20
3.64389992790168
 30
0.0
  0
VERTEX
  5
1EB
  8
LAYER_1
 10
53.84122700191445
 20
3.666218587530608
 30
0.0
  0
VERTEX
  5
1EC
  8
LAYER_1
 10
53.78633980170059
 20
3.674541070626958
 30
0.0
  0
VERTEX
  5
1ED
  8
LAYER_1
 10
53.72841092044544
 20
3.683042028070524
 30
0.0
  0
VERTEX
  5
1EE
  8
LAYER_1
 10
53.64546847833185
 20
3.705846632704265
 30
0.0
  0
VERTEX
  5
1EF
  8
LAYER_1
 10
53.44883978828955
 20
3.780464352762039
 30
0.0
  0
VERTEX
  5
1F0
  8
LAYER_1
 10
53.1305120131029
 20
3.900881319204301
 30
0.0
  0
VERTEX
  5
1F1
  8
LAYER_1
 10
52.67695989960536
 20
4.042041572577762
 30
0.0
  0
VERTEX
  5
1F2
  8
LAYER_1
 10
52.11535431920446
 20
4.197320057057778
 30
0.0
  0
VERTEX
  5
1F3
  8
LAYER_1
 10
51.47286614330771
 20
4.360091716819705
 30
0.0
  0
VERTEX
  5
1F4
  8
LAYER_1
 10
50.77666624332264
 20
4.523731496038899
 30
0.0
  0
VERTEX
  5
1F5
  8
LAYER_1
 10
50.0539254906568
 20
4.681614338890716
 30
0.0
  0
VERTEX
  5
1F6
  8
LAYER_1
 10
49.33181475671769
 20
4.827115189550515
 30
0.0
  0
VERTEX
  5
1F7
  8
LAYER_1
 10
48.63750491291285
 20
4.953608992193651
 30
0.0
  0
VERTEX
  5
1F8
  8
LAYER_1
 10
47.64822479054066
 20
5.108825900991822
 30
0.0
  0
VERTEX
  5
1F9
  8
LAYER_1
 10
47.16424444980962
 20
5.173881466589769
 30
0.0
  0
VERTEX
  5
1FA
  8
LAYER_1
 10
46.68536495468079
 20
5.230654221372808
 30
0.0
  0
VERTEX
  5
1FB
  8
LAYER_1
 10
46.21008207912834
 20
5.27920850163033
 30
0.0
  0
VERTEX
  5
1FC
  8
LAYER_1
 10
45.73689159712642
 20
5.319608643651723
 30
0.0
  0
VERTEX
  5
1FD
  8
LAYER_1
 10
45.26428928264918
 20
5.351918983726375
 30
0.0
  0
VERTEX
  5
1FE
  8
LAYER_1
 10
44.79077090967076
 20
5.376203858143676
 30
0.0
  0
VERTEX
  5
1FF
  8
LAYER_1
 10
44.31483225216532
 20
5.392527603193015
 30
0.0
  0
VERTEX
  5
200
  8
LAYER_1
 10
43.83496908410698
 20
5.40095455516378
 30
0.0
  0
VERTEX
  5
201
  8
LAYER_1
 10
43.34967717946992
 20
5.401549050345363
 30
0.0
  0
VERTEX
  5
202
  8
LAYER_1
 10
42.85745231222828
 20
5.394375425027151
 30
0.0
  0
VERTEX
  5
203
  8
LAYER_1
 10
41.84618678582783
 20
5.356981158048897
 30
0.0
  0
VERTEX
  5
204
  8
LAYER_1
 10
40.78913869669883
 20
5.289286444544132
 30
0.0
  0
VERTEX
  5
205
  8
LAYER_1
 10
39.33750454336405
 20
5.17856969427929
 30
0.0
  0
VERTEX
  5
206
  8
LAYER_1
 10
38.85000452399254
 20
5.101737355063264
 30
0.0
  0
VERTEX
  5
207
  8
LAYER_1
 10
37.65000447630882
 20
4.913930489452795
 30
0.0
  0
VERTEX
  5
208
  8
LAYER_1
 10
37.14527152411458
 20
4.831187379836688
 30
0.0
  0
VERTEX
  5
209
  8
LAYER_1
 10
36.64073212019984
 20
4.740290255228579
 30
0.0
  0
VERTEX
  5
20A
  8
LAYER_1
 10
36.13723894517277
 20
4.64148291410403
 30
0.0
  0
VERTEX
  5
20B
  8
LAYER_1
 10
35.63564467964149
 20
4.5350091549386
 30
0.0
  0
VERTEX
  5
20C
  8
LAYER_1
 10
35.13680200421418
 20
4.421112776207854
 30
0.0
  0
VERTEX
  5
20D
  8
LAYER_1
 10
34.64156359949897
 20
4.300037576387352
 30
0.0
  0
VERTEX
  5
20E
  8
LAYER_1
 10
34.15078214610402
 20
4.172027353952654
 30
0.0
  0
VERTEX
  5
20F
  8
LAYER_1
 10
33.66531032463746
 20
4.037325907379323
 30
0.0
  0
VERTEX
  5
210
  8
LAYER_1
 10
33.18600081570746
 20
3.896177035142919
 30
0.0
  0
VERTEX
  5
211
  8
LAYER_1
 10
32.71370629992215
 20
3.748824535719005
 30
0.0
  0
VERTEX
  5
212
  8
LAYER_1
 10
32.2492794578897
 20
3.595512207583141
 30
0.0
  0
VERTEX
  5
213
  8
LAYER_1
 10
31.79357297021824
 20
3.436483849210888
 30
0.0
  0
VERTEX
  5
214
  8
LAYER_1
 10
31.34743951751593
 20
3.271983259077809
 30
0.0
  0
VERTEX
  5
215
  8
LAYER_1
 10
30.91173178039092
 20
3.102254235659464
 30
0.0
  0
VERTEX
  5
216
  8
LAYER_1
 10
30.48730243945135
 20
2.927540577431414
 30
0.0
  0
VERTEX
  5
217
  8
LAYER_1
 10
30.07500417530537
 20
2.748086082869222
 30
0.0
  0
VERTEX
  5
218
  8
LAYER_1
 10
28.987504132092
 20
2.261210964363244
 30
0.0
  0
VERTEX
  5
219
  8
LAYER_1
 10
28.61250411719084
 20
2.06653278136038
 30
0.0
  0
VERTEX
  5
21A
  8
LAYER_1
 10
28.28156660404056
 20
1.886062196645202
 30
0.0
  0
VERTEX
  5
21B
  8
LAYER_1
 10
28.01250409334898
 20
1.72554270739785
 30
0.0
  0
VERTEX
  5
21C
  8
LAYER_1
 10
27.77095615275251
 20
1.577066222577669
 30
0.0
  0
VERTEX
  5
21D
  8
LAYER_1
 10
27.50617069110751
 20
1.425550095315089
 30
0.0
  0
VERTEX
  5
21E
  8
LAYER_1
 10
27.12842170207017
 20
1.203000581373883
 30
0.0
  0
VERTEX
  5
21F
  8
LAYER_1
 10
26.67027825928488
 20
0.9131473737865559
 30
0.0
  0
VERTEX
  5
220
  8
LAYER_1
 10
26.26313757764627
 20
0.6412888753162627
 30
0.0
  0
VERTEX
  5
221
  8
LAYER_1
 10
26.11975490191154
 20
0.5387633928634903
 30
0.0
  0
VERTEX
  5
222
  8
LAYER_1
 10
26.03839687204896
 20
0.4727234887261602
 30
0.0
  0
VERTEX
  5
223
  8
LAYER_1
 10
25.95131585433629
 20
0.4037083901262744
 30
0.0
  0
VERTEX
  5
224
  8
LAYER_1
 10
25.91152797272806
 20
0.3827137528309541
 30
0.0
  0
VERTEX
  5
225
  8
LAYER_1
 10
25.88112259235515
 20
0.3750029951334
 30
0.0
  0
VERTEX
  5
226
  8
LAYER_1
 10
25.84658481474124
 20
0.3646465494093718
 30
0.0
  0
VERTEX
  5
227
  8
LAYER_1
 10
25.79554535648671
 20
0.3364483061013743
 30
0.0
  0
VERTEX
  5
228
  8
LAYER_1
 10
25.67147733772585
 20
0.2437529899179935
 30
0.0
  0
VERTEX
  5
229
  8
LAYER_1
 10
25.27310481927692
 20
-0.0749970227479935
 30
0.0
  0
VERTEX
  5
22A
  8
LAYER_1
 10
24.80132005212124
 20
-0.4499970376491547
 30
0.0
  0
VERTEX
  5
22B
  8
LAYER_1
 10
24.57642968168477
 20
-0.6374970450997353
 30
0.0
  0
VERTEX
  5
22C
  8
LAYER_1
 10
23.13716990084953
 20
-2.062497101724148
 30
0.0
  0
VERTEX
  5
22D
  8
LAYER_1
 10
22.88829316607864
 20
-2.342899445800981
 30
0.0
  0
VERTEX
  5
22E
  8
LAYER_1
 10
22.57752596890293
 20
-2.703828827019064
 30
0.0
  0
VERTEX
  5
22F
  8
LAYER_1
 10
22.26864499948976
 20
-3.08369638330311
 30
0.0
  0
VERTEX
  5
230
  8
LAYER_1
 10
21.96451287109827
 20
-3.478481454903755
 30
0.0
  0
VERTEX
  5
231
  8
LAYER_1
 10
21.66799219698761
 20
-3.884163382071634
 30
0.0
  0
VERTEX
  5
232
  8
LAYER_1
 10
21.38194559041693
 20
-4.296721505057384
 30
0.0
  0
VERTEX
  5
233
  8
LAYER_1
 10
21.10923566464535
 20
-4.71213516411164
 30
0.0
  0
VERTEX
  5
234
  8
LAYER_1
 10
20.85272503293204
 20
-5.126383699485038
 30
0.0
  0
VERTEX
  5
235
  8
LAYER_1
 10
20.61527630853611
 20
-5.535446451428214
 30
0.0
  0
VERTEX
  5
236
  8
LAYER_1
 10
20.35413209201624
 20
-6.023884750331037
 30
0.0
  0
VERTEX
  5
237
  8
LAYER_1
 10
20.07420522706027
 20
-6.580662081403961
 30
0.0
  0
VERTEX
  5
238
  8
LAYER_1
 10
19.832457918309
 20
-7.089430297523037
 30
0.0
  0
VERTEX
  5
239
  8
LAYER_1
 10
19.68585237040325
 20
-7.433841251564317
 30
0.0
  0
VERTEX
  5
23A
  8
LAYER_1
 10
19.59512735382608
 20
-7.666942509592808
 30
0.0
  0
VERTEX
  5
23B
  8
LAYER_1
 10
19.51350139839899
 20
-7.846341267955594
 30
0.0
  0
VERTEX
  5
23C
  8
LAYER_1
 10
19.25283840482585
 20
-8.399997353553772
 30
0.0
  0
VERTEX
  5
23D
  8
LAYER_1
 10
18.84072553070219
 20
-9.281043813326797
 30
0.0
  0
VERTEX
  5
23E
  8
LAYER_1
 10
18.39251297273718
 20
-10.17900469947017
 30
0.0
  0
VERTEX
  5
23F
  8
LAYER_1
 10
17.94703014415606
 20
-11.01839530006567
 30
0.0
  0
VERTEX
  5
240
  8
LAYER_1
 10
17.73744657001735
 20
-11.39253777080854
 30
0.0
  0
VERTEX
  5
241
  8
LAYER_1
 10
17.54310645818407
 20
-11.72373090319511
 30
0.0
  0
VERTEX
  5
242
  8
LAYER_1
 10
17.38907136308685
 20
-11.98933361831752
 30
0.0
  0
VERTEX
  5
243
  8
LAYER_1
 10
17.32500366866589
 20
-12.12064639069985
 30
0.0
  0
VERTEX
  5
244
  8
LAYER_1
 10
17.30202892222981
 20
-12.17245604869091
 30
0.0
  0
VERTEX
  5
245
  8
LAYER_1
 10
17.24679176590477
 20
-12.2469129781492
 30
0.0
  0
VERTEX
  5
246
  8
LAYER_1
 10
17.11633222263695
 20
-12.43206018359504
 30
0.0
  0
VERTEX
  5
247
  8
LAYER_1
 10
16.91250365227461
 20
-12.74999752640724
 30
0.0
  0
VERTEX
  5
248
  8
LAYER_1
 10
16.71418233521327
 20
-13.06335691385902
 30
0.0
  0
VERTEX
  5
249
  8
LAYER_1
 10
16.5969636349883
 20
-13.23749754577875
 30
0.0
  0
VERTEX
  5
24A
  8
LAYER_1
 10
16.23750172105132
 20
-13.76198822156847
 30
0.0
  0
VERTEX
  5
24B
  8
LAYER_1
 10
16.00359680674007
 20
-14.10349270083761
 30
0.0
  0
VERTEX
  5
24C
  8
LAYER_1
 10
15.86250361055136
 20
-14.29335699343306
 30
0.0
  0
VERTEX
  5
24D
  8
LAYER_1
 10
15.76547235669568
 20
-14.41251419532698
 30
0.0
  0
VERTEX
  5
24E
  8
LAYER_1
 10
15.63750360161066
 20
-14.58402077567545
 30
0.0
  0
VERTEX
  5
24F
  8
LAYER_1
 10
15.4875035956502
 20
-14.79280645886275
 30
0.0
  0
VERTEX
  5
250
  8
LAYER_1
 10
14.92500357329845
 20
-15.47555222786588
 30
0.0
  0
VERTEX
  5
251
  8
LAYER_1
 10
14.64149770265794
 20
-15.80608869473872
 30
0.0
  0
VERTEX
  5
252
  8
LAYER_1
 10
14.28539417288266
 20
-16.20135624337073
 30
0.0
  0
VERTEX
  5
253
  8
LAYER_1
 10
13.9022203295317
 20
-16.61173998492356
 30
0.0
  0
VERTEX
  5
254
  8
LAYER_1
 10
13.53750351816416
 20
-16.98762503055885
 30
0.0
  0
VERTEX
  5
255
  8
LAYER_1
 10
12.7125034853816
 20
-17.81695206424868
 30
0.0
  0
VERTEX
  5
256
  8
LAYER_1
 10
12.34027317222663
 20
-18.11472490783173
 30
0.0
  0
VERTEX
  5
257
  8
LAYER_1
 10
11.70706165708793
 20
-18.60681802423547
 30
0.0
  0
VERTEX
  5
258
  8
LAYER_1
 10
11.10481500637993
 20
-19.04801226584896
 30
0.0
  0
VERTEX
  5
259
  8
LAYER_1
 10
10.57923066615515
 20
-19.4059292510947
 30
0.0
  0
VERTEX
  5
25A
  8
LAYER_1
 10
10.35946731436539
 20
-19.54354052833668
 30
0.0
  0
VERTEX
  5
25B
  8
LAYER_1
 10
10.17600608246612
 20
-19.64819059839517
 30
0.0
  0
VERTEX
  5
25C
  8
LAYER_1
 10
9.821300510090964
 20
-19.84383589432181
 30
0.0
  0
VERTEX
  5
25D
  8
LAYER_1
 10
9.619373905771795
 20
-19.96839588174057
 30
0.0
  0
VERTEX
  5
25E
  8
LAYER_1
 10
9.535163768041791
 20
-20.02274842177475
 30
0.0
  0
VERTEX
  5
25F
  8
LAYER_1
 10
9.391573337269186
 20
-20.10119882934618
 30
0.0
  0
VERTEX
  5
260
  8
LAYER_1
 10
8.963177217413142
 20
-20.31285667197689
 30
0.0
  0
VERTEX
  5
261
  8
LAYER_1
 10
8.408036787837572
 20
-20.56829625938495
 30
0.0
  0
VERTEX
  5
262
  8
LAYER_1
 10
7.800003290176392
 20
-20.83244444132261
 30
0.0
  0
VERTEX
  5
263
  8
LAYER_1
 10
7.087503261864185
 20
-21.13247603066734
 30
0.0
  0
VERTEX
  5
264
  8
LAYER_1
 10
6.900003254413605
 20
-21.18345075266075
 30
0.0
  0
VERTEX
  5
265
  8
LAYER_1
 10
6.723518872400746
 20
-21.23877533721662
 30
0.0
  0
VERTEX
  5
266
  8
LAYER_1
 10
6.56250324100256
 20
-21.30020823941339
 30
0.0
  0
VERTEX
  5
267
  8
LAYER_1
 10
6.412503235042095
 20
-21.36599100417265
 30
0.0
  0
VERTEX
  5
268
  8
LAYER_1
 10
5.610303122138589
 20
-21.56095247218787
 30
0.0
  0
VERTEX
  5
269
  8
LAYER_1
 10
4.868537846664527
 20
-21.72955364134179
 30
0.0
  0
VERTEX
  5
26A
  8
LAYER_1
 10
4.143757433978644
 20
-21.8688692879218
 30
0.0
  0
VERTEX
  5
26B
  8
LAYER_1
 10
3.396549855600648
 20
-21.98575923847006
 30
0.0
  0
VERTEX
  5
26C
  8
LAYER_1
 10
2.587503083050251
 20
-22.08708331952872
 30
0.0
  0
VERTEX
  5
26D
  8
LAYER_1
 10
1.687503047287464
 20
-22.18817886255849
 30
0.0
  0
VERTEX
  5
26E
  8
LAYER_1
 10
-1.837497092783451
 20
-22.05547851673122
 30
0.0
  0
VERTEX
  5
26F
  8
LAYER_1
 10
-2.924997135996819
 20
-21.97117348976291
 30
0.0
  0
VERTEX
  5
270
  8
LAYER_1
 10
-4.075165270595245
 20
-21.87461165638735
 30
0.0
  0
VERTEX
  5
271
  8
LAYER_1
 10
-5.177693604736067
 20
-21.76718124018577
 30
0.0
  0
VERTEX
  5
272
  8
LAYER_1
 10
-6.219544668085052
 20
-21.65024634496143
 30
0.0
  0
VERTEX
  5
273
  8
LAYER_1
 10
-7.187680990307967
 20
-21.5251710745176
 30
0.0
  0
VERTEX
  5
274
  8
LAYER_1
 10
-8.262864717959246
 20
-21.37589794640999
 30
0.0
  0
VERTEX
  5
275
  8
LAYER_1
 10
-8.392316870785379
 20
-21.29589211604659
 30
0.0
  0
VERTEX
  5
276
  8
LAYER_1
 10
-9.12740714122684
 20
-21.15579648774681
 30
0.0
  0
VERTEX
  5
277
  8
LAYER_1
 10
-9.811799026291947
 20
-21.01239137971681
 30
0.0
  0
VERTEX
  5
278
  8
LAYER_1
 10
-10.42499743402004
 20
-20.86433891717202
 30
0.0
  0
VERTEX
  5
279
  8
LAYER_1
 10
-11.54999747872353
 20
-20.56485126014383
 30
0.0
  0
VERTEX
  5
27A
  8
LAYER_1
 10
-12.04522936470273
 20
-20.42744331916744
 30
0.0
  0
VERTEX
  5
27B
  8
LAYER_1
 10
-12.56534445493102
 20
-20.27223673404702
 30
0.0
  0
VERTEX
  5
27C
  8
LAYER_1
 10
-13.01841107456443
 20
-20.12756000223012
 30
0.0
  0
VERTEX
  5
27D
  8
LAYER_1
 10
-13.31249754875898
 20
-20.02174162116427
 30
0.0
  0
VERTEX
  5
27E
  8
LAYER_1
 10
-13.46249755471945
 20
-19.95899740284095
 30
0.0
  0
VERTEX
  5
27F
  8
LAYER_1
 10
-14.17499758303165
 20
-19.67830808230582
 30
0.0
  0
VERTEX
  5
280
  8
LAYER_1
 10
-14.53674365813535
 20
-19.52614040055852
 30
0.0
  0
VERTEX
  5
281
  8
LAYER_1
 10
-14.99499254219134
 20
-19.31931717198377
 30
0.0
  0
VERTEX
  5
282
  8
LAYER_1
 10
-15.49097900835337
 20
-19.08500508742
 30
0.0
  0
VERTEX
  5
283
  8
LAYER_1
 10
-15.96593782977516
 20
-18.85037083770565
 30
0.0
  0
VERTEX
  5
284
  8
LAYER_1
 10
-17.04437804820647
 20
-18.30312291364061
 30
0.0
  0
VERTEX
  5
285
  8
LAYER_1
 10
-17.11979109677264
 20
-18.34973074084974
 30
0.0
  0
VERTEX
  5
286
  8
LAYER_1
 10
-17.13437579134511
 20
-18.37034647161232
 30
0.0
  0
VERTEX
  5
287
  8
LAYER_1
 10
-17.14555003469606
 20
-18.41038699612966
 30
0.0
  0
VERTEX
  5
288
  8
LAYER_1
 10
-17.15830402290083
 20
-18.53910871011288
 30
0.0
  0
VERTEX
  5
289
  8
LAYER_1
 10
-17.15932677172185
 20
-18.7166284501679
 30
0.0
  0
VERTEX
  5
28A
  8
LAYER_1
 10
-17.14989199149405
 20
-18.92367878366322
 30
0.0
  0
VERTEX
  5
28B
  8
LAYER_1
 10
-17.13127339255235
 20
-19.14099227796736
 30
0.0
  0
VERTEX
  5
28C
  8
LAYER_1
 10
-17.10474468523167
 20
-19.3493015004488
 30
0.0
  0
VERTEX
  5
28D
  8
LAYER_1
 10
-17.07157957986692
 20
-19.52933901847607
 30
0.0
  0
VERTEX
  5
28E
  8
LAYER_1
 10
-17.03305178679303
 20
-19.66183739941765
 30
0.0
  0
VERTEX
  5
28F
  8
LAYER_1
 10
-16.99886728523241
 20
-19.78330476331917
 30
0.0
  0
VERTEX
  5
290
  8
LAYER_1
 10
-16.9575571205248
 20
-19.9841788208856
 30
0.0
  0
VERTEX
  5
291
  8
LAYER_1
 10
-16.87438483861676
 20
-20.51249783486128
 30
0.0
  0
VERTEX
  5
292
  8
LAYER_1
 10
-16.78277611382353
 20
-21.14343535993248
 30
0.0
  0
VERTEX
  5
293
  8
LAYER_1
 10
-16.68699808487389
 20
-21.71249788254499
 30
0.0
  0
VERTEX
  5
294
  8
LAYER_1
 10
-16.45546574967601
 20
-22.98749793320894
 30
0.0
  0
VERTEX
  5
295
  8
LAYER_1
 10
-16.40319707148041
 20
-23.2558320573979
 30
0.0
  0
VERTEX
  5
296
  8
LAYER_1
 10
-16.34825180791195
 20
-23.47777056818762
 30
0.0
  0
VERTEX
  5
297
  8
LAYER_1
 10
-16.287678254399
 20
-23.6583872514798
 30
0.0
  0
VERTEX
  5
298
  8
LAYER_1
 10
-16.21852470636997
 20
-23.80275589317612
 30
0.0
  0
VERTEX
  5
299
  8
LAYER_1
 10
-16.13783945925323
 20
-23.91595027917827
 30
0.0
  0
VERTEX
  5
29A
  8
LAYER_1
 10
-16.04267080847717
 20
-24.00304419538793
 30
0.0
  0
VERTEX
  5
29B
  8
LAYER_1
 10
-15.93006704947017
 20
-24.06911142770678
 30
0.0
  0
VERTEX
  5
29C
  8
LAYER_1
 10
-15.79707647766064
 20
-24.11922576203652
 30
0.0
  0
VERTEX
  5
29D
  8
LAYER_1
 10
-15.65132704805914
 20
-24.1815018997608
 30
0.0
  0
VERTEX
  5
29E
  8
LAYER_1
 10
-15.58127104660531
 20
-24.22224738040273
 30
0.0
  0
VERTEX
  5
29F
  8
LAYER_1
 10
-15.52499763667583
 20
-24.26310316581584
 30
0.0
  0
VERTEX
  5
2A0
  8
LAYER_1
 10
-15.41249763220549
 20
-24.35846626568218
 30
0.0
  0
VERTEX
  5
2A1
  8
LAYER_1
 10
-14.5124975964427
 20
-24.81378994208202
 30
0.0
  0
VERTEX
  5
2A2
  8
LAYER_1
 10
-13.73646958960503
 20
-25.19819511389825
 30
0.0
  0
VERTEX
  5
2A3
  8
LAYER_1
 10
-13.11207565457275
 20
-25.48988381260813
 30
0.0
  0
VERTEX
  5
2A4
  8
LAYER_1
 10
-12.64943081719741
 20
-25.68433247192436
 30
0.0
  0
VERTEX
  5
2A5
  8
LAYER_1
 10
-12.4819252557097
 20
-25.74367817234509
 30
0.0
  0
VERTEX
  5
2A6
  8
LAYER_1
 10
-12.35865010333057
 20
-25.77701752555967
 30
0.0
  0
VERTEX
  5
2A7
  8
LAYER_1
 10
-12.27763421068971
 20
-25.79769637534984
 30
0.0
  0
VERTEX
  5
2A8
  8
LAYER_1
 10
-12.21128920404016
 20
-25.82315161031389
 30
0.0
  0
VERTEX
  5
2A9
  8
LAYER_1
 10
-12.16646149684451
 20
-25.85015277753156
 30
0.0
  0
VERTEX
  5
2AA
  8
LAYER_1
 10
-12.14999750256538
 20
-25.87546942408255
 30
0.0
  0
VERTEX
  5
2AB
  8
LAYER_1
 10
-12.14274674063103
 20
-25.88868931543159
 30
0.0
  0
VERTEX
  5
2AC
  8
LAYER_1
 10
-12.12196584877133
 20
-25.90455172356768
 30
0.0
  0
VERTEX
  5
2AD
  8
LAYER_1
 10
-12.04564203893602
 20
-25.9418059062001
 30
0.0
  0
VERTEX
  5
2AE
  8
LAYER_1
 10
-11.93268280037977
 20
-25.98243560397799
 30
0.0
  0
VERTEX
  5
2AF
  8
LAYER_1
 10
-11.79474486042287
 20
-26.02164444889955
 30
0.0
  0
VERTEX
  5
2B0
  8
LAYER_1
 10
-11.52152345300528
 20
-26.1018033989944
 30
0.0
  0
VERTEX
  5
2B1
  8
LAYER_1
 10
-11.42103485283991
 20
-26.13940440558939
 30
0.0
  0
VERTEX
  5
2B2
  8
LAYER_1
 10
-11.36349484328653
 20
-26.16891022229665
 30
0.0
  0
VERTEX
  5
2B3
  8
LAYER_1
 10
-11.30439664260142
 20
-26.19876654494124
 30
0.0
  0
VERTEX
  5
2B4
  8
LAYER_1
 10
-11.19966544281993
 20
-26.23732189938541
 30
0.0
  0
VERTEX
  5
2B5
  8
LAYER_1
 10
-10.91249745339155
 20
-26.3206180511372
 30
0.0
  0
VERTEX
  5
2B6
  8
LAYER_1
 10
-10.53749743849039
 20
-26.4267655356708
 30
0.0
  0
VERTEX
  5
2B7
  8
LAYER_1
 10
-10.16249742358923
 20
-26.55011765114988
 30
0.0
  0
VERTEX
  5
2B8
  8
LAYER_1
 10
-9.82250375468956
 20
-26.66548775264882
 30
0.0
  0
VERTEX
  5
2B9
  8
LAYER_1
 10
-9.446970419433983
 20
-26.77891496216391
 30
0.0
  0
VERTEX
  5
2BA
  8
LAYER_1
 10
-9.038628950572956
 20
-26.88994533826841
 30
0.0
  0
VERTEX
  5
2BB
  8
LAYER_1
 10
-8.600210880856945
 20
-26.99812493953556
 30
0.0
  0
VERTEX
  5
2BC
  8
LAYER_1
 10
-8.134447743036407
 20
-27.10299982453861
 30
0.0
  0
VERTEX
  5
2BD
  8
LAYER_1
 10
-7.644071069861808
 20
-27.20411605185082
 30
0.0
  0
VERTEX
  5
2BE
  8
LAYER_1
 10
-7.131812394083608
 20
-27.30101968004543
 30
0.0
  0
VERTEX
  5
2BF
  8
LAYER_1
 10
-6.600403248452269
 20
-27.3932567676957
 30
0.0
  0
VERTEX
  5
2C0
  8
LAYER_1
 10
-6.052575165718251
 20
-27.48037337337487
 30
0.0
  0
VERTEX
  5
2C1
  8
LAYER_1
 10
-5.491059678632016
 20
-27.56191555565619
 30
0.0
  0
VERTEX
  5
2C2
  8
LAYER_1
 10
-4.337892622404745
 20
-27.7064608843183
 30
0.0
  0
VERTEX
  5
2C3
  8
LAYER_1
 10
-3.751704118764631
 20
-27.76855614784559
 30
0.0
  0
VERTEX
  5
2C4
  8
LAYER_1
 10
-3.162754341774147
 20
-27.82326122226804
 30
0.0
  0
VERTEX
  5
2C5
  8
LAYER_1
 10
-2.573774824183755
 20
-27.8701221661589
 30
0.0
  0
VERTEX
  5
2C6
  8
LAYER_1
 10
-1.987497098743916
 20
-27.90868503809141
 30
0.0
  0
VERTEX
  5
2C7
  8
LAYER_1
 10
-0.6374970450997353
 20
-27.98788557628166
 30
0.0
  0
VERTEX
  5
2C8
  8
LAYER_1
 10
3.262503109872341
 20
-27.89717973786627
 30
0.0
  0
VERTEX
  5
2C9
  8
LAYER_1
 10
3.587066274711816
 20
-27.86249812692404
 30
0.0
  0
VERTEX
  5
2CA
  8
LAYER_1
 10
3.182493564266821
 20
-28.29230014289607
 30
0.0
  0
VERTEX
  5
2CB
  8
LAYER_1
 10
3.037963687852486
 20
-28.45318857857976
 30
0.0
  0
VERTEX
  5
2CC
  8
LAYER_1
 10
2.917328377762958
 20
-28.60833102123126
 30
0.0
  0
VERTEX
  5
2CD
  8
LAYER_1
 10
2.814647415858561
 20
-28.77145922791927
 30
0.0
  0
VERTEX
  5
2CE
  8
LAYER_1
 10
2.723980583999619
 20
-28.95630495571247
 30
0.0
  0
VERTEX
  5
2CF
  8
LAYER_1
 10
2.63938766404646
 20
-29.17659996167957
 30
0.0
  0
VERTEX
  5
2D0
  8
LAYER_1
 10
2.554928437859408
 20
-29.44607600288927
 30
0.0
  0
VERTEX
  5
2D1
  8
LAYER_1
 10
2.362650194224926
 20
-30.18749821931124
 30
0.0
  0
VERTEX
  5
2D2
  8
LAYER_1
 10
2.224032852034166
 20
-30.78235798552224
 30
0.0
  0
VERTEX
  5
2D3
  8
LAYER_1
 10
2.181251080722725
 20
-30.99815754906825
 30
0.0
  0
VERTEX
  5
2D4
  8
LAYER_1
 10
2.154223035720426
 20
-31.17547451209721
 30
0.0
  0
VERTEX
  5
2D5
  8
LAYER_1
 10
2.141500561867157
 20
-31.32626208400107
 30
0.0
  0
VERTEX
  5
2D6
  8
LAYER_1
 10
2.141635504002805
 20
-31.46247347417177
 30
0.0
  0
VERTEX
  5
2D7
  8
LAYER_1
 10
2.153179706967258
 20
-31.59606189200129
 30
0.0
  0
VERTEX
  5
2D8
  8
LAYER_1
 10
2.174685015600403
 20
-31.73898054688156
 30
0.0
  0
VERTEX
  5
2D9
  8
LAYER_1
 10
2.607690993474021
 20
-34.19671764203071
 30
0.0
  0
VERTEX
  5
2DA
  8
LAYER_1
 10
2.746247200247048
 20
-34.92757056452512
 30
0.0
  0
VERTEX
  5
2DB
  8
LAYER_1
 10
2.818819779385208
 20
-35.24999842047691
 30
0.0
  0
VERTEX
  5
2DC
  8
LAYER_1
 10
2.85976903690937
 20
-35.36249842494726
 30
0.0
  0
VERTEX
  5
2DD
  8
LAYER_1
 10
3.21049952981366
 20
-37.0874984934926
 30
0.0
  0
VERTEX
  5
2DE
  8
LAYER_1
 10
3.322043883215699
 20
-37.38749850541353
 30
0.0
  0
VERTEX
  5
2DF
  8
LAYER_1
 10
3.443510719206078
 20
-37.6750201981781
 30
0.0
  0
VERTEX
  5
2E0
  8
LAYER_1
 10
3.591061730026058
 20
-37.95685954682364
 30
0.0
  0
VERTEX
  5
2E1
  8
LAYER_1
 10
3.762083921678772
 20
-38.22972965560221
 30
0.0
  0
VERTEX
  5
2E2
  8
LAYER_1
 10
3.953964300167353
 20
-38.49034362876583
 30
0.0
  0
VERTEX
  5
2E3
  8
LAYER_1
 10
4.164089871494935
 20
-38.73541457056654
 30
0.0
  0
VERTEX
  5
2E4
  8
LAYER_1
 10
4.389847641664648
 20
-38.96165558525637
 30
0.0
  0
VERTEX
  5
2E5
  8
LAYER_1
 10
4.628624616679627
 20
-39.16577977708734
 30
0.0
  0
VERTEX
  5
2E6
  8
LAYER_1
 10
4.877807802543003
 20
-39.34450025031151
 30
0.0
  0
VERTEX
  5
2E7
  8
LAYER_1
 10
5.141855901371006
 20
-39.52440967242872
 30
0.0
  0
VERTEX
  5
2E8
  8
LAYER_1
 10
5.306697173067775
 20
-39.65120338611142
 30
0.0
  0
VERTEX
  5
2E9
  8
LAYER_1
 10
5.417153757518092
 20
-39.72798116656933
 30
0.0
  0
VERTEX
  5
2EA
  8
LAYER_1
 10
5.55044718275353
 20
-39.78763951518867
 30
0.0
  0
VERTEX
  5
2EB
  8
LAYER_1
 10
5.608516982688103
 20
-39.81158932456044
 30
0.0
  0
VERTEX
  5
2EC
  8
LAYER_1
 10
5.656071124686836
 20
-39.84170986827342
 30
0.0
  0
VERTEX
  5
2ED
  8
LAYER_1
 10
5.688202301713005
 20
-39.87414852683284
 30
0.0
  0
VERTEX
  5
2EE
  8
LAYER_1
 10
5.700003206729889
 20
-39.90505268074392
 30
0.0
  0
VERTEX
  5
2EF
  8
LAYER_1
 10
5.705565409230603
 20
-39.93221137290124
 30
0.0
  0
VERTEX
  5
2F0
  8
LAYER_1
 10
5.720710019999871
 20
-39.95445199203206
 30
0.0
  0
VERTEX
  5
2F1
  8
LAYER_1
 10
5.743124043938382
 20
-39.96947943739072
 30
0.0
  0
VERTEX
  5
2F2
  8
LAYER_1
 10
5.770494485946827
 20
-39.97499860823154
 30
0.0
  0
VERTEX
  5
2F3
  8
LAYER_1
 10
5.840985765163779
 20
-39.97499860823154
 30
0.0
  0
VERTEX
  5
2F4
  8
LAYER_1
 10
6.543214958890346
 20
-40.30532680381265
 30
0.0
  0
VERTEX
  5
2F5
  8
LAYER_1
 10
7.207924840581108
 20
-40.6114045809916
 30
0.0
  0
VERTEX
  5
2F6
  8
LAYER_1
 10
7.73411765653959
 20
-40.83805864833111
 30
0.0
  0
VERTEX
  5
2F7
  8
LAYER_1
 10
8.147806213200482
 20
-40.99593143684604
 30
0.0
  0
VERTEX
  5
2F8
  8
LAYER_1
 10
8.475003316998482
 20
-41.09566537755131
 30
0.0
  0
VERTEX
  5
2F9
  8
LAYER_1
 10
8.757425203220919
 20
-41.17663458376711
 30
0.0
  0
VERTEX
  5
2FA
  8
LAYER_1
 10
8.962503336369991
 20
-41.25111019216107
 30
0.0
  0
VERTEX
  5
2FB
  8
LAYER_1
 10
9.200628345832229
 20
-41.33274349380936
 30
0.0
  0
VERTEX
  5
2FC
  8
LAYER_1
 10
9.56250336021185
 20
-41.43092162210473
 30
0.0
  0
VERTEX
  5
2FD
  8
LAYER_1
 10
10.6125034019351
 20
-41.70012542159647
 30
0.0
  0
VERTEX
  5
2FE
  8
LAYER_1
 10
11.10973941237567
 20
-41.82531428442326
 30
0.0
  0
VERTEX
  5
2FF
  8
LAYER_1
 10
11.68745344234965
 20
-41.9595099199354
 30
0.0
  0
VERTEX
  5
300
  8
LAYER_1
 10
12.97136752906319
 20
-42.23219693625951
 30
0.0
  0
VERTEX
  5
301
  8
LAYER_1
 10
13.62109356988538
 20
-42.35932603069332
 30
0.0
  0
VERTEX
  5
302
  8
LAYER_1
 10
14.23834959840628
 20
-42.47273732505622
 30
0.0
  0
VERTEX
  5
303
  8
LAYER_1
 10
14.79489860666721
 20
-42.56674967615912
 30
0.0
  0
VERTEX
  5
304
  8
LAYER_1
 10
15.2625035867095
 20
-42.63568194081297
 30
0.0
  0
VERTEX
  5
305
  8
LAYER_1
 10
16.68750364333391
 20
-42.825927289984
 30
0.0
  0
VERTEX
  5
306
  8
LAYER_1
 10
17.28750366717577
 20
-42.90749720255769
 30
0.0
  0
VERTEX
  5
307
  8
LAYER_1
 10
18.82500372827053
 20
-43.05700629818487
 30
0.0
  0
VERTEX
  5
308
  8
LAYER_1
 10
21.82500384747982
 20
-43.35514867286567
 30
0.0
  0
VERTEX
  5
309
  8
LAYER_1
 10
24.90742758243274
 20
-43.66167170015095
 30
0.0
  0
VERTEX
  5
30A
  8
LAYER_1
 10
28.35000410676003
 20
-43.99122081100163
 30
0.0
  0
VERTEX
  5
30B
  8
LAYER_1
 10
31.85919354029529
 20
-44.32847847794439
 30
0.0
  0
VERTEX
  5
30C
  8
LAYER_1
 10
34.47489008858277
 20
-44.59558420340242
 30
0.0
  0
VERTEX
  5
30D
  8
LAYER_1
 10
35.6872758752003
 20
-44.72513477300926
 30
0.0
  0
VERTEX
  5
30E
  8
LAYER_1
 10
35.74140155430504
 20
-47.06249888986349
 30
0.0
  0
VERTEX
  5
30F
  8
LAYER_1
 10
35.90628580451431
 20
-47.3249989002943
 30
0.0
  0
VERTEX
  5
310
  8
LAYER_1
 10
36.02946719016514
 20
-47.50705920681597
 30
0.0
  0
VERTEX
  5
311
  8
LAYER_1
 10
36.09204111755201
 20
-47.58310448191408
 30
0.0
  0
VERTEX
  5
312
  8
LAYER_1
 10
36.15946961068349
 20
-47.65049868248846
 30
0.0
  0
VERTEX
  5
313
  8
LAYER_1
 10
36.2349019765873
 20
-47.71024594172768
 30
0.0
  0
VERTEX
  5
314
  8
LAYER_1
 10
36.32148752229115
 20
-47.76335039282031
 30
0.0
  0
VERTEX
  5
315
  8
LAYER_1
 10
36.42237555482279
 20
-47.81081616895492
 30
0.0
  0
VERTEX
  5
316
  8
LAYER_1
 10
36.54071538120991
 20
-47.85364740332007
 30
0.0
  0
VERTEX
  5
317
  8
LAYER_1
 10
36.67965630848026
 20
-47.89284822910435
 30
0.0
  0
VERTEX
  5
318
  8
LAYER_1
 10
36.84234764366155
 20
-47.92942277949629
 30
0.0
  0
VERTEX
  5
319
  8
LAYER_1
 10
37.25157876586786
 20
-47.99870958685747
 30
0.0
  0
VERTEX
  5
31A
  8
LAYER_1
 10
37.79360320405063
 20
-48.06954089091219
 30
0.0
  0
VERTEX
  5
31B
  8
LAYER_1
 10
38.49361541443162
 20
-48.14994975716898
 30
0.0
  0
VERTEX
  5
31C
  8
LAYER_1
 10
38.92653773461572
 20
-48.20518516414171
 30
0.0
  0
VERTEX
  5
31D
  8
LAYER_1
 10
39.07999793205812
 20
-48.23200351869977
 30
0.0
  0
VERTEX
  5
31E
  8
LAYER_1
 10
39.19671466280342
 20
-48.25980110778637
 30
0.0
  0
VERTEX
  5
31F
  8
LAYER_1
 10
39.28063080815365
 20
-48.28971203176209
 30
0.0
  0
VERTEX
  5
320
  8
LAYER_1
 10
39.33568924941083
 20
-48.32287039098749
 30
0.0
  0
VERTEX
  5
321
  8
LAYER_1
 10
39.365832867877
 20
-48.36041028582314
 30
0.0
  0
VERTEX
  5
322
  8
LAYER_1
 10
39.37500454485416
 20
-48.40346581662958
 30
0.0
  0
VERTEX
  5
323
  8
LAYER_1
 10
39.38896696673802
 20
-48.4860424553796
 30
0.0
  0
VERTEX
  5
324
  8
LAYER_1
 10
39.42721767057409
 20
-48.59642825503053
 30
0.0
  0
VERTEX
  5
325
  8
LAYER_1
 10
39.48430181363909
 20
-48.72470748652328
 30
0.0
  0
VERTEX
  5
326
  8
LAYER_1
 10
39.55476455320975
 20
-48.86096442079875
 30
0.0
  0
VERTEX
  5
327
  8
LAYER_1
 10
39.63315104656279
 20
-48.99528332879785
 30
0.0
  0
VERTEX
  5
328
  8
LAYER_1
 10
39.71400645097494
 20
-49.11774848146149
 30
0.0
  0
VERTEX
  5
329
  8
LAYER_1
 10
39.79187592372293
 20
-49.21844414973057
 30
0.0
  0
VERTEX
  5
32A
  8
LAYER_1
 10
39.86130462208348
 20
-49.28745460454599
 30
0.0
  0
VERTEX
  5
32B
  8
LAYER_1
 10
39.93221166340938
 20
-49.3617459076919
 30
0.0
  0
VERTEX
  5
32C
  8
LAYER_1
 10
39.99471588460209
 20
-49.4625000538237
 30
0.0
  0
VERTEX
  5
32D
  8
LAYER_1
 10
40.04373479273177
 20
-49.57978045788882
 30
0.0
  0
VERTEX
  5
32E
  8
LAYER_1
 10
40.07418589486853
 20
-49.70365053483465
 30
0.0
  0
VERTEX
  5
32F
  8
LAYER_1
 10
40.11881463810607
 20
-49.98749900609255
 30
0.0
  0
VERTEX
  5
330
  8
LAYER_1
 10
40.26976319930638
 20
-50.92499904334545
 30
0.0
  0
VERTEX
  5
331
  8
LAYER_1
 10
40.83274580853647
 20
-54.33749917894602
 30
0.0
  0
VERTEX
  5
332
  8
LAYER_1
 10
40.9131212160445
 20
-54.86929607507773
 30
0.0
  0
VERTEX
  5
333
  8
LAYER_1
 10
40.93711327696452
 20
-55.07393475508434
 30
0.0
  0
VERTEX
  5
334
  8
LAYER_1
 10
40.94538047596203
 20
-55.19999921321869
 30
0.0
  0
VERTEX
  5
335
  8
LAYER_1
 10
40.94069520344638
 20
-55.2957127108882
 30
0.0
  0
VERTEX
  5
336
  8
LAYER_1
 10
40.93397014331882
 20
-55.31666315870237
 30
0.0
  0
VERTEX
  5
337
  8
LAYER_1
 10
40.92262303931853
 20
-55.31876429992518
 30
0.0
  0
VERTEX
  5
338
  8
LAYER_1
 10
40.88096141582112
 20
-55.26368334486386
 30
0.0
  0
VERTEX
  5
339
  8
LAYER_1
 10
40.80550776519681
 20
-55.12499921023846
 30
0.0
  0
VERTEX
  5
33A
  8
LAYER_1
 10
40.74793088050527
 20
-54.99320250964576
 30
0.0
  0
VERTEX
  5
33B
  8
LAYER_1
 10
40.69307825227485
 20
-54.82839869148536
 30
0.0
  0
VERTEX
  5
33C
  8
LAYER_1
 10
40.64715596061603
 20
-54.65162341827565
 30
0.0
  0
VERTEX
  5
33D
  8
LAYER_1
 10
40.61637008563929
 20
-54.48391235253501
 30
0.0
  0
VERTEX
  5
33E
  8
LAYER_1
 10
40.58879585703412
 20
-54.29228313520949
 30
0.0
  0
VERTEX
  5
33F
  8
LAYER_1
 10
40.55855702689366
 20
-54.14856216386674
 30
0.0
  0
VERTEX
  5
340
  8
LAYER_1
 10
40.53940263117435
 20
-54.09269689759761
 30
0.0
  0
VERTEX
  5
341
  8
LAYER_1
 10
40.51593917898321
 20
-54.04644424541463
 30
0.0
  0
VERTEX
  5
342
  8
LAYER_1
 10
40.4869523682909
 20
-54.00901605818126
 30
0.0
  0
VERTEX
  5
343
  8
LAYER_1
 10
40.45122789706809
 20
-53.979624186761
 30
0.0
  0
VERTEX
  5
344
  8
LAYER_1
 10
40.40755146328543
 20
-53.95748048201732
 30
0.0
  0
VERTEX
  5
345
  8
LAYER_1
 10
40.3547087649136
 20
-53.94179679481371
 30
0.0
  0
VERTEX
  5
346
  8
LAYER_1
 10
40.21666736628507
 20
-53.92665687648061
 30
0.0
  0
VERTEX
  5
347
  8
LAYER_1
 10
39.77716010466713
 20
-53.93921868828838
 30
0.0
  0
VERTEX
  5
348
  8
LAYER_1
 10
39.50905165821111
 20
-53.96049230797698
 30
0.0
  0
VERTEX
  5
349
  8
LAYER_1
 10
39.25986446979007
 20
-53.99585271024611
 30
0.0
  0
VERTEX
  5
34A
  8
LAYER_1
 10
39.03254440323379
 20
-54.04427004011159
 30
0.0
  0
VERTEX
  5
34B
  8
LAYER_1
 10
38.83003732237204
 20
-54.10471444258923
 30
0.0
  0
VERTEX
  5
34C
  8
LAYER_1
 10
38.65528909103462
 20
-54.1761560626948
 30
0.0
  0
VERTEX
  5
34D
  8
LAYER_1
 10
38.51124557305131
 20
-54.25756504544415
 30
0.0
  0
VERTEX
  5
34E
  8
LAYER_1
 10
38.4008526322519
 20
-54.34791153585307
 30
0.0
  0
VERTEX
  5
34F
  8
LAYER_1
 10
38.35919571074295
 20
-54.3961145167473
 30
0.0
  0
VERTEX
  5
350
  8
LAYER_1
 10
38.32705613246615
 20
-54.44616567893736
 30
0.0
  0
VERTEX
  5
351
  8
LAYER_1
 10
38.24127914130771
 20
-54.60644145300192
 30
0.0
  0
VERTEX
  5
352
  8
LAYER_1
 10
38.41412483812574
 20
-57.63749931007624
 30
0.0
  0
VERTEX
  5
353
  8
LAYER_1
 10
38.47228540532635
 20
-57.71249931305647
 30
0.0
  0
VERTEX
  5
354
  8
LAYER_1
 10
38.4987821959875
 20
-57.76233329941169
 30
0.0
  0
VERTEX
  5
355
  8
LAYER_1
 10
38.52793273146478
 20
-57.84257744322531
 30
0.0
  0
VERTEX
  5
356
  8
LAYER_1
 10
38.58005082547339
 20
-58.04999932646751
 30
0.0
  0
VERTEX
  5
357
  8
LAYER_1
 10
38.62052652261339
 20
-58.21543323101251
 30
0.0
  0
VERTEX
  5
358
  8
LAYER_1
 10
38.67968475745829
 20
-58.38753537046487
 30
0.0
  0
VERTEX
  5
359
  8
LAYER_1
 10
38.75525283927976
 20
-58.56225318985861
 30
0.0
  0
VERTEX
  5
35A
  8
LAYER_1
 10
38.84495807734946
 20
-58.73553413422772
 30
0.0
  0
VERTEX
  5
35B
  8
LAYER_1
 10
38.94652778093902
 20
-58.90332564860621
 30
0.0
  0
VERTEX
  5
35C
  8
LAYER_1
 10
39.0576892593201
 20
-59.06157517802809
 30
0.0
  0
VERTEX
  5
35D
  8
LAYER_1
 10
39.17616982176433
 20
-59.20623016752737
 30
0.0
  0
VERTEX
  5
35E
  8
LAYER_1
 10
39.29969677754339
 20
-59.33323806213805
 30
0.0
  0
VERTEX
  5
35F
  8
LAYER_1
 10
39.61258249427594
 20
-59.62499938905239
 30
0.0
  0
VERTEX
  5
360
  8
LAYER_1
 10
40.95000460743904
 20
-59.62499938905239
 30
0.0
  0
VERTEX
  5
361
  8
LAYER_1
 10
40.95000460743904
 20
-59.28274748914591
 30
0.0
  0
VERTEX
  5
362
  8
LAYER_1
 10
40.95394904919701
 20
-59.08587210838154
 30
0.0
  0
VERTEX
  5
363
  8
LAYER_1
 10
40.96310110134416
 20
-59.0259518235967
 30
0.0
  0
VERTEX
  5
364
  8
LAYER_1
 10
40.98079215206982
 20
-58.9867922432379
 30
0.0
  0
VERTEX
  5
365
  8
LAYER_1
 10
41.00983653467379
 20
-58.96470519282597
 30
0.0
  0
VERTEX
  5
366
  8
LAYER_1
 10
41.05304858245589
 20
-58.95600249788177
 30
0.0
  0
VERTEX
  5
367
  8
LAYER_1
 10
41.19323300675359
 20
-58.96399747647992
 30
0.0
  0
VERTEX
  5
368
  8
LAYER_1
 10
41.31308047952707
 20
-58.98604770248009
 30
0.0
  0
VERTEX
  5
369
  8
LAYER_1
 10
41.36220179174738
 20
-59.00474217812632
 30
0.0
  0
VERTEX
  5
36A
  8
LAYER_1
 10
41.40541509564045
 20
-59.02943957932424
 30
0.0
  0
VERTEX
  5
36B
  8
LAYER_1
 10
41.44369059704401
 20
-59.06080741891455
 30
0.0
  0
VERTEX
  5
36C
  8
LAYER_1
 10
41.47799850179582
 20
-59.09951320973792
 30
0.0
  0
VERTEX
  5
36D
  8
LAYER_1
 10
41.53859234469527
 20
-59.20160869644668
 30
0.0
  0
VERTEX
  5
36E
  8
LAYER_1
 10
41.61159801529442
 20
-59.32847480826207
 30
0.0
  0
VERTEX
  5
36F
  8
LAYER_1
 10
41.71002772993259
 20
-59.46236584899389
 30
0.0
  0
VERTEX
  5
370
  8
LAYER_1
 10
41.82601084079242
 20
-59.59592310902531
 30
0.0
  0
VERTEX
  5
371
  8
LAYER_1
 10
41.95167670005654
 20
-59.72178787873953
 30
0.0
  0
VERTEX
  5
372
  8
LAYER_1
 10
42.07915465990757
 20
-59.83260144851971
 30
0.0
  0
VERTEX
  5
373
  8
LAYER_1
 10
42.20057407252816
 20
-59.92100510874906
 30
0.0
  0
VERTEX
  5
374
  8
LAYER_1
 10
42.30806429010093
 20
-59.97964014981076
 30
0.0
  0
VERTEX
  5
375
  8
LAYER_1
 10
42.35412637330146
 20
-59.99549484139847
 30
0.0
  0
VERTEX
  5
376
  8
LAYER_1
 10
42.39375466480851
 20
-60.00114786208797
 30
0.0
  0
VERTEX
  5
377
  8
LAYER_1
 10
42.4667703820678
 20
-60.00635010681714
 30
0.0
  0
VERTEX
  5
378
  8
LAYER_1
 10
42.54083003425247
 20
-60.01966565676821
 30
0.0
  0
VERTEX
  5
379
  8
LAYER_1
 10
42.60728050527085
 20
-60.03907895252794
 30
0.0
  0
VERTEX
  5
37A
  8
LAYER_1
 10
42.65746867903125
 20
-60.06257443468303
 30
0.0
  0
VERTEX
  5
37B
  8
LAYER_1
 10
42.75243268654846
 20
-60.12285254914367
 30
0.0
  0
VERTEX
  5
37C
  8
LAYER_1
 10
42.83548271954083
 20
-61.16767602050704
 30
0.0
  0
VERTEX
  5
37D
  8
LAYER_1
 10
42.87891768703248
 20
-61.76155666985339
 30
0.0
  0
VERTEX
  5
37E
  8
LAYER_1
 10
42.88700214646657
 20
-61.95838055746503
 30
0.0
  0
VERTEX
  5
37F
  8
LAYER_1
 10
42.88493707343447
 20
-62.10694999056868
 30
0.0
  0
VERTEX
  5
380
  8
LAYER_1
 10
42.87192683074241
 20
-62.22113234681412
 30
0.0
  0
VERTEX
  5
381
  8
LAYER_1
 10
42.8471757811966
 20
-62.31479500385111
 30
0.0
  0
VERTEX
  5
382
  8
LAYER_1
 10
42.75926871276867
 20
-62.49603073089888
 30
0.0
  0
VERTEX
  5
383
  8
LAYER_1
 10
42.69886327011235
 20
-62.61513460363465
 30
0.0
  0
VERTEX
  5
384
  8
LAYER_1
 10
42.65350591073497
 20
-62.73110724529633
 30
0.0
  0
VERTEX
  5
385
  8
LAYER_1
 10
42.62313204844725
 20
-62.84485139710147
 30
0.0
  0
VERTEX
  5
386
  8
LAYER_1
 10
42.60767709705993
 20
-62.95726980026764
 30
0.0
  0
VERTEX
  5
387
  8
LAYER_1
 10
42.60707647038376
 20
-63.0692651960124
 30
0.0
  0
VERTEX
  5
388
  8
LAYER_1
 10
42.62126558222946
 20
-63.18174032555332
 30
0.0
  0
VERTEX
  5
389
  8
LAYER_1
 10
42.65017984640777
 20
-63.29559793010797
 30
0.0
  0
VERTEX
  5
38A
  8
LAYER_1
 10
42.69375467672944
 20
-63.41174075089391
 30
0.0
  0
VERTEX
  5
38B
  8
LAYER_1
 10
42.8647715451108
 20
-63.77677313763806
 30
0.0
  0
VERTEX
  5
38C
  8
LAYER_1
 10
43.06931455338434
 20
-64.1722490696319
 30
0.0
  0
VERTEX
  5
38D
  8
LAYER_1
 10
43.26352815866512
 20
-64.51678184958016
 30
0.0
  0
VERTEX
  5
38E
  8
LAYER_1
 10
43.34305657803167
 20
-64.64451121463243
 30
0.0
  0
VERTEX
  5
38F
  8
LAYER_1
 10
43.40355681806817
 20
-64.72898478018757
 30
0.0
  0
VERTEX
  5
390
  8
LAYER_1
 10
43.58016643667
 20
-64.93607958318083
 30
0.0
  0
VERTEX
  5
391
  8
LAYER_1
 10
43.75727151805124
 20
-65.13046023902115
 30
0.0
  0
VERTEX
  5
392
  8
LAYER_1
 10
43.9356510596899
 20
-65.3126094532705
 30
0.0
  0
VERTEX
  5
393
  8
LAYER_1
 10
44.11608405906401
 20
-65.48300993149081
 30
0.0
  0
VERTEX
  5
394
  8
LAYER_1
 10
44.29934951365158
 20
-65.64214437924404
 30
0.0
  0
VERTEX
  5
395
  8
LAYER_1
 10
44.48622642093063
 20
-65.79049550209216
 30
0.0
  0
VERTEX
  5
396
  8
LAYER_1
 10
44.67749377837919
 20
-65.92854600559708
 30
0.0
  0
VERTEX
  5
397
  8
LAYER_1
 10
44.87393058347526
 20
-66.05677859532076
 30
0.0
  0
VERTEX
  5
398
  8
LAYER_1
 10
45.07631583369687
 20
-66.17567597682516
 30
0.0
  0
VERTEX
  5
399
  8
LAYER_1
 10
45.28542852652205
 20
-66.28572085567222
 30
0.0
  0
VERTEX
  5
39A
  8
LAYER_1
 10
45.5020476594288
 20
-66.3873959374239
 30
0.0
  0
VERTEX
  5
39B
  8
LAYER_1
 10
45.72695222989515
 20
-66.48118392764215
 30
0.0
  0
VERTEX
  5
39C
  8
LAYER_1
 10
45.96092123539913
 20
-66.5675675318889
 30
0.0
  0
VERTEX
  5
39D
  8
LAYER_1
 10
46.20473367341873
 20
-66.64702945572611
 30
0.0
  0
VERTEX
  5
39E
  8
LAYER_1
 10
46.45916854143199
 20
-66.72005240471572
 30
0.0
  0
SEQEND
  5
D81
  8
LAYER_1
  0
POLYLINE
  5
71
  8
LAYER_1
 66
     1
 10
0.0
 20
0.0
 30
0.0
 70
     1
  0
VERTEX
  5
39F
  8
LAYER_1
 10
-38.43749854713678
 20
-64.05337601918036
 30
0.0
  0
VERTEX
  5
3A0
  8
LAYER_1
 10
-36.93749848753214
 20
-64.10540494827711
 30
0.0
  0
VERTEX
  5
3A1
  8
LAYER_1
 10
-31.53749827295542
 20
-64.04772735572533
 30
0.0
  0
VERTEX
  5
3A2
  8
LAYER_1
 10
-30.3374982252717
 20
-63.97656115242052
 30
0.0
  0
VERTEX
  5
3A3
  8
LAYER_1
 10
-29.03097131708844
 20
-63.89052306665334
 30
0.0
  0
VERTEX
  5
3A4
  8
LAYER_1
 10
-27.75160154694011
 20
-63.7888203348225
 30
0.0
  0
VERTEX
  5
3A5
  8
LAYER_1
 10
-26.49500168278397
 20
-63.67094283200198
 30
0.0
  0
VERTEX
  5
3A6
  8
LAYER_1
 10
-25.25678449257731
 20
-63.53638043326573
 30
0.0
  0
VERTEX
  5
3A7
  8
LAYER_1
 10
-24.0325627442774
 20
-63.38462301368772
 30
0.0
  0
VERTEX
  5
3A8
  8
LAYER_1
 10
-22.81794920584151
 20
-63.21516044834191
 30
0.0
  0
VERTEX
  5
3A9
  8
LAYER_1
 10
-21.60855664522694
 20
-63.02748261230226
 30
0.0
  0
VERTEX
  5
3AA
  8
LAYER_1
 10
-20.39999783039093
 20
-62.82107938064274
 30
0.0
  0
VERTEX
  5
3AB
  8
LAYER_1
 10
-19.76249780505896
 20
-62.70727424530687
 30
0.0
  0
VERTEX
  5
3AC
  8
LAYER_1
 10
-17.28749770671129
 20
-62.17552310364407
 30
0.0
  0
VERTEX
  5
3AD
  8
LAYER_1
 10
-16.87499769032001
 20
-62.06977103094974
 30
0.0
  0
VERTEX
  5
3AE
  8
LAYER_1
 10
-16.11403979354882
 20
-61.86729905946601
 30
0.0
  0
VERTEX
  5
3AF
  8
LAYER_1
 10
-14.36249759048223
 20
-61.38752847865801
 30
0.0
  0
VERTEX
  5
3B0
  8
LAYER_1
 10
-13.91249757260084
 20
-61.26385625778349
 30
0.0
  0
VERTEX
  5
3B1
  8
LAYER_1
 10
-11.88749749213457
 20
-60.59747598249724
 30
0.0
  0
VERTEX
  5
3B2
  8
LAYER_1
 10
-11.73749748617411
 20
-60.53197278364527
 30
0.0
  0
VERTEX
  5
3B3
  8
LAYER_1
 10
-10.94999745488167
 20
-60.22599496752289
 30
0.0
  0
VERTEX
  5
3B4
  8
LAYER_1
 10
-10.16338319773651
 20
-59.91431784148941
 30
0.0
  0
VERTEX
  5
3B5
  8
LAYER_1
 10
-9.36334271531847
 20
-59.56865274337081
 30
0.0
  0
VERTEX
  5
3B6
  8
LAYER_1
 10
-8.560480438402603
 20
-59.19447784762535
 30
0.0
  0
VERTEX
  5
3B7
  8
LAYER_1
 10
-7.765400797763965
 20
-58.79727132871128
 30
0.0
  0
VERTEX
  5
3B8
  8
LAYER_1
 10
-6.988708224177614
 20
-58.38251136108686
 30
0.0
  0
VERTEX
  5
3B9
  8
LAYER_1
 10
-6.241007148418609
 20
-57.95567611921032
 30
0.0
  0
VERTEX
  5
3BA
  8
LAYER_1
 10
-5.532902001262004
 20
-57.52224377753996
 30
0.0
  0
VERTEX
  5
3BB
  8
LAYER_1
 10
-4.874997213482857
 20
-57.08769251053401
 30
0.0
  0
VERTEX
  5
3BC
  8
LAYER_1
 10
-4.16249718517065
 20
-56.59709953787025
 30
0.0
  0
VERTEX
  5
3BD
  8
LAYER_1
 10
-4.087497182190418
 20
-56.50967964587015
 30
0.0
  0
VERTEX
  5
3BE
  8
LAYER_1
 10
-3.482724047272455
 20
-56.0100255209645
 30
0.0
  0
VERTEX
  5
3BF
  8
LAYER_1
 10
-3.24276375557433
 20
-55.80545178711289
 30
0.0
  0
VERTEX
  5
3C0
  8
LAYER_1
 10
-2.99731538433419
 20
-55.58415630147198
 30
0.0
  0
VERTEX
  5
3C1
  8
LAYER_1
 10
-2.750006104932958
 20
-55.34982125552322
 30
0.0
  0
VERTEX
  5
3C2
  8
LAYER_1
 10
-2.504463088751558
 20
-55.1061288407481
 30
0.0
  0
VERTEX
  5
3C3
  8
LAYER_1
 10
-2.264313507170915
 20
-54.85676124862805
 30
0.0
  0
VERTEX
  5
3C4
  8
LAYER_1
 10
-2.03318453157195
 20
-54.60540067064453
 30
0.0
  0
VERTEX
  5
3C5
  8
LAYER_1
 10
-1.814703333335589
 20
-54.35572929827903
 30
0.0
  0
VERTEX
  5
3C6
  8
LAYER_1
 10
-1.612497083842754
 20
-54.11142932301298
 30
0.0
  0
VERTEX
  5
3C7
  8
LAYER_1
 10
-1.272403923646507
 20
-53.69999915361404
 30
0.0
  0
VERTEX
  5
3C8
  8
LAYER_1
 10
-1.206562622064787
 20
-53.62076054421387
 30
0.0
  0
VERTEX
  5
3C9
  8
LAYER_1
 10
-1.108307075770573
 20
-53.47966142590358
 30
0.0
  0
VERTEX
  5
3CA
  8
LAYER_1
 10
-0.8462138607722114
 20
-53.06410754131382
 30
0.0
  0
VERTEX
  5
3CB
  8
LAYER_1
 10
-0.5494455021065241
 20
-52.55778925736714
 30
0.0
  0
VERTEX
  5
3CC
  8
LAYER_1
 10
-0.2813232232286111
 20
-52.06515833158593
 30
0.0
  0
VERTEX
  5
3CD
  8
LAYER_1
 10
-0.0856222155862567
 20
-51.6689244786232
 30
0.0
  0
VERTEX
  5
3CE
  8
LAYER_1
 10
-0.0195080383623967
 20
-51.51202963978129
 30
0.0
  0
VERTEX
  5
3CF
  8
LAYER_1
 10
0.0301641342651102
 20
-51.36674957441148
 30
0.0
  0
VERTEX
  5
3D0
  8
LAYER_1
 10
0.066930962147658
 20
-51.22118431879812
 30
0.0
  0
VERTEX
  5
3D1
  8
LAYER_1
 10
0.0943291051366404
 20
-51.06343390922556
 30
0.0
  0
VERTEX
  5
3D2
  8
LAYER_1
 10
0.1351659758394845
 20
-50.66377777334023
 30
0.0
  0
VERTEX
  5
3D3
  8
LAYER_1
 10
0.1548632523114402
 20
-50.32709759217017
 30
0.0
  0
VERTEX
  5
3D4
  8
LAYER_1
 10
0.1615038065423338
 20
-49.97889094343928
 30
0.0
  0
VERTEX
  5
3D5
  8
LAYER_1
 10
0.1556589701501665
 20
-49.62744223828388
 30
0.0
  0
VERTEX
  5
3D6
  8
LAYER_1
 10
0.13790007475294
 20
-49.28103588784022
 30
0.0
  0
VERTEX
  5
3D7
  8
LAYER_1
 10
0.1087984519686555
 20
-48.94795630324461
 30
0.0
  0
VERTEX
  5
3D8
  8
LAYER_1
 10
0.0689254334153147
 20
-48.63648789563334
 30
0.0
  0
VERTEX
  5
3D9
  8
LAYER_1
 10
0.0188523507109188
 20
-48.35491507614272
 30
0.0
  0
VERTEX
  5
3DA
  8
LAYER_1
 10
-0.0408494645265307
 20
-48.11152225590901
 30
0.0
  0
VERTEX
  5
3DB
  8
LAYER_1
 10
-0.112752551715114
 20
-47.88027864615197
 30
0.0
  0
VERTEX
  5
3DC
  8
LAYER_1
 10
-0.1940532091354684
 20
-47.64928669321277
 30
0.0
  0
VERTEX
  5
3DD
  8
LAYER_1
 10
-0.2846109555928318
 20
-47.41877268680935
 30
0.0
  0
VERTEX
  5
3DE
  8
LAYER_1
 10
-0.3842853098924419
 20
-47.1889629166597
 30
0.0
  0
VERTEX
  5
3DF
  8
LAYER_1
 10
-0.4929357908395365
 20
-46.96008367248177
 30
0.0
  0
VERTEX
  5
3E0
  8
LAYER_1
 10
-0.6104219172393537
 20
-46.73236124399357
 30
0.0
  0
VERTEX
  5
3E1
  8
LAYER_1
 10
-0.736603207897131
 20
-46.50602192091304
 30
0.0
  0
VERTEX
  5
3E2
  8
LAYER_1
 10
-0.8713391816181062
 20
-46.28129199295817
 30
0.0
  0
VERTEX
  5
3E3
  8
LAYER_1
 10
-1.014489357207517
 20
-46.05839774984692
 30
0.0
  0
VERTEX
  5
3E4
  8
LAYER_1
 10
-1.165913253470602
 20
-45.83756548129726
 30
0.0
  0
VERTEX
  5
3E5
  8
LAYER_1
 10
-1.325470389212598
 20
-45.61902147702718
 30
0.0
  0
VERTEX
  5
3E6
  8
LAYER_1
 10
-1.493020283238744
 20
-45.40299202675465
 30
0.0
  0
VERTEX
  5
3E7
  8
LAYER_1
 10
-1.668422454354276
 20
-45.18970342019762
 30
0.0
  0
VERTEX
  5
3E8
  8
LAYER_1
 10
-1.851536421364434
 20
-44.97938194707407
 30
0.0
  0
VERTEX
  5
3E9
  8
LAYER_1
 10
-2.042221703074454
 20
-44.77225389710199
 30
0.0
  0
VERTEX
  5
3EA
  8
LAYER_1
 10
-2.240337818289575
 20
-44.56854555999934
 30
0.0
  0
VERTEX
  5
3EB
  8
LAYER_1
 10
-2.970883746085192
 20
-43.8374987617135
 30
0.0
  0
VERTEX
  5
3EC
  8
LAYER_1
 10
-3.358796658397338
 20
-43.53749874979258
 30
0.0
  0
VERTEX
  5
3ED
  8
LAYER_1
 10
-3.546629550754662
 20
-43.38026818638628
 30
0.0
  0
VERTEX
  5
3EE
  8
LAYER_1
 10
-3.619374483670245
 20
-43.30797964244823
 30
0.0
  0
VERTEX
  5
3EF
  8
LAYER_1
 10
-3.679889521360938
 20
-43.23749873787165
 30
0.0
  0
VERTEX
  5
3F0
  8
LAYER_1
 10
-3.729587999039613
 20
-43.16701783329506
 30
0.0
  0
VERTEX
  5
3F1
  8
LAYER_1
 10
-3.769883251919142
 20
-43.09472928935701
 30
0.0
  0
VERTEX
  5
3F2
  8
LAYER_1
 10
-3.802188615212398
 20
-43.01882546669605
 30
0.0
  0
VERTEX
  5
3F3
  8
LAYER_1
 10
-3.827917424132252
 20
-42.93749872595072
 30
0.0
  0
VERTEX
  5
3F4
  8
LAYER_1
 10
-3.914988433928482
 20
-42.63749871402979
 30
0.0
  0
VERTEX
  5
3F5
  8
LAYER_1
 10
-4.010292812249162
 20
-42.33749870210886
 30
0.0
  0
VERTEX
  5
3F6
  8
LAYER_1
 10
-4.239582866659532
 20
-41.58749867230654
 30
0.0
  0
VERTEX
  5
3F7
  8
LAYER_1
 10
-4.367705386375732
 20
-41.13749865442514
 30
0.0
  0
VERTEX
  5
3F8
  8
LAYER_1
 10
-4.781599900705118
 20
-39.89999860525131
 30
0.0
  0
VERTEX
  5
3F9
  8
LAYER_1
 10
-5.216530095657764
 20
-38.63468234723967
 30
0.0
  0
VERTEX
  5
3FA
  8
LAYER_1
 10
-5.661034470173599
 20
-37.4012923530948
 30
0.0
  0
VERTEX
  5
3FB
  8
LAYER_1
 10
-6.063703678568688
 20
-36.33913044218735
 30
0.0
  0
VERTEX
  5
3FC
  8
LAYER_1
 10
-6.233284674944723
 20
-35.91579183650098
 30
0.0
  0
VERTEX
  5
3FD
  8
LAYER_1
 10
-6.373128375159098
 20
-35.58749843388796
 30
0.0
  0
VERTEX
  5
3FE
  8
LAYER_1
 10
-6.440136342365321
 20
-35.43749842792749
 30
0.0
  0
VERTEX
  5
3FF
  8
LAYER_1
 10
-7.508454068706669
 20
-33.18749833852053
 30
0.0
  0
VERTEX
  5
400
  8
LAYER_1
 10
-7.785475704424698
 20
-32.77734650531846
 30
0.0
  0
VERTEX
  5
401
  8
LAYER_1
 10
-8.049210737694242
 20
-32.40769096362817
 30
0.0
  0
VERTEX
  5
402
  8
LAYER_1
 10
-8.32659017445137
 20
-32.05940092616626
 30
0.0
  0
VERTEX
  5
403
  8
LAYER_1
 10
-8.617384154718083
 20
-31.73269399271953
 30
0.0
  0
VERTEX
  5
404
  8
LAYER_1
 10
-8.921362818516384
 20
-31.42778776307473
 30
0.0
  0
VERTEX
  5
405
  8
LAYER_1
 10
-9.238296305868271
 20
-31.14489983701864
 30
0.0
  0
VERTEX
  5
406
  8
LAYER_1
 10
-9.567954756795752
 20
-30.88424781433805
 30
0.0
  0
VERTEX
  5
407
  8
LAYER_1
 10
-9.910108311320823
 20
-30.64604929481972
 30
0.0
  0
VERTEX
  5
408
  8
LAYER_1
 10
-10.26452710946549
 20
-30.43052187825043
 30
0.0
  0
VERTEX
  5
409
  8
LAYER_1
 10
-10.87499745190144
 20
-30.07709260242484
 30
0.0
  0
VERTEX
  5
40A
  8
LAYER_1
 10
-10.98749745637178
 20
-30.00563968852169
 30
0.0
  0
VERTEX
  5
40B
  8
LAYER_1
 10
-11.6008033140408
 20
-29.7047090317797
 30
0.0
  0
VERTEX
  5
40C
  8
LAYER_1
 10
-12.22832324521181
 20
-29.41341803242219
 30
0.0
  0
VERTEX
  5
40D
  8
LAYER_1
 10
-12.87580336470475
 20
-29.13566357322164
 30
0.0
  0
VERTEX
  5
40E
  8
LAYER_1
 10
-13.53749755769968
 20
-28.86754877140557
 30
0.0
  0
VERTEX
  5
40F
  8
LAYER_1
 10
-13.83749756962061
 20
-28.72538428912274
 30
0.0
  0
VERTEX
  5
410
  8
LAYER_1
 10
-14.84999760985374
 20
-28.37750427434445
 30
0.0
  0
VERTEX
  5
411
  8
LAYER_1
 10
-15.35040892584759
 20
-28.21095488967046
 30
0.0
  0
VERTEX
  5
412
  8
LAYER_1
 10
-15.87906965202768
 20
-28.04522066900169
 30
0.0
  0
VERTEX
  5
413
  8
LAYER_1
 10
-16.43283869929529
 20
-27.88100911689664
 30
0.0
  0
VERTEX
  5
414
  8
LAYER_1
 10
-17.00857497855168
 20
-27.71902773791385
 30
0.0
  0
VERTEX
  5
415
  8
LAYER_1
 10
-18.21338487663586
 20
-27.40458551754918
 30
0.0
  0
VERTEX
  5
416
  8
LAYER_1
 10
-19.46837063349034
 20
-27.10755404437586
 30
0.0
  0
VERTEX
  5
417
  8
LAYER_1
 10
-20.74840353632524
 20
-26.83359335486211
 30
0.0
  0
VERTEX
  5
418
  8
LAYER_1
 10
-22.02835487235067
 20
-26.58836348547615
 30
0.0
  0
VERTEX
  5
419
  8
LAYER_1
 10
-22.66044723006299
 20
-26.47829136972741
 30
0.0
  0
VERTEX
  5
41A
  8
LAYER_1
 10
-23.28309592877675
 20
-26.37752447268619
 30
0.0
  0
VERTEX
  5
41B
  8
LAYER_1
 10
-23.89315987939319
 20
-26.28677029891102
 30
0.0
  0
VERTEX
  5
41C
  8
LAYER_1
 10
-24.48749799281359
 20
-26.20673635296043
 30
0.0
  0
VERTEX
  5
41D
  8
LAYER_1
 10
-25.31249802559614
 20
-26.1018364629707
 30
0.0
  0
VERTEX
  5
41E
  8
LAYER_1
 10
-29.28749818354845
 20
-25.73305420309793
 30
0.0
  0
VERTEX
  5
41F
  8
LAYER_1
 10
-31.68749827891588
 20
-25.58037497965672
 30
0.0
  0
VERTEX
  5
420
  8
LAYER_1
 10
-34.01249837130308
 20
-25.53167415508656
 30
0.0
  0
VERTEX
  5
421
  8
LAYER_1
 10
-35.22547362650691
 20
-25.51546291825752
 30
0.0
  0
VERTEX
  5
422
  8
LAYER_1
 10
-36.36275113695789
 20
-25.52144843883773
 30
0.0
  0
VERTEX
  5
423
  8
LAYER_1
 10
-37.51552731189265
 20
-25.55104780768382
 30
0.0
  0
VERTEX
  5
424
  8
LAYER_1
 10
-38.77499856054783
 20
-25.60567811565242
 30
0.0
  0
VERTEX
  5
425
  8
LAYER_1
 10
-41.21249865740538
 20
-25.72838290078845
 30
0.0
  0
VERTEX
  5
426
  8
LAYER_1
 10
-41.58749867230654
 20
-25.79741104446464
 30
0.0
  0
VERTEX
  5
427
  8
LAYER_1
 10
-42.97499872744083
 20
-25.91463299601489
 30
0.0
  0
VERTEX
  5
428
  8
LAYER_1
 10
-44.23126735826143
 20
-26.03286126424297
 30
0.0
  0
VERTEX
  5
429
  8
LAYER_1
 10
-45.46994583681806
 20
-26.17354391167055
 30
0.0
  0
VERTEX
  5
42A
  8
LAYER_1
 10
-46.68643372715312
 20
-26.3359230501285
 30
0.0
  0
VERTEX
  5
42B
  8
LAYER_1
 10
-47.87613059330903
 20
-26.51924079144768
 30
0.0
  0
VERTEX
  5
42C
  8
LAYER_1
 10
-49.03443599932822
 20
-26.72273924745897
 30
0.0
  0
VERTEX
  5
42D
  8
LAYER_1
 10
-50.15674950925312
 20
-26.94566052999324
 30
0.0
  0
VERTEX
  5
42E
  8
LAYER_1
 10
-51.23847068712611
 20
-27.18724675088135
 30
0.0
  0
VERTEX
  5
42F
  8
LAYER_1
 10
-52.27499909698963
 20
-27.44674002195418
 30
0.0
  0
VERTEX
  5
430
  8
LAYER_1
 10
-53.66249915212393
 20
-27.81430220605109
 30
0.0
  0
VERTEX
  5
431
  8
LAYER_1
 10
-54.05624916777015
 20
-27.93215017021285
 30
0.0
  0
VERTEX
  5
432
  8
LAYER_1
 10
-54.80624919757247
 20
-28.15685604151652
 30
0.0
  0
VERTEX
  5
433
  8
LAYER_1
 10
-55.47507970713656
 20
-28.3702673537144
 30
0.0
  0
VERTEX
  5
434
  8
LAYER_1
 10
-56.16869121267072
 20
-28.61555626956041
 30
0.0
  0
VERTEX
  5
435
  8
LAYER_1
 10
-56.87390046858881
 20
-28.88705241601288
 30
0.0
  0
VERTEX
  5
436
  8
LAYER_1
 10
-57.57752422930471
 20
-29.1790854200301
 30
0.0
  0
VERTEX
  5
437
  8
LAYER_1
 10
-58.2663792492323
 20
-29.48598490857037
 30
0.0
  0
VERTEX
  5
438
  8
LAYER_1
 10
-58.92728228278545
 20
-29.80208050859199
 30
0.0
  0
VERTEX
  5
439
  8
LAYER_1
 10
-59.54705008437802
 20
-30.12170184705327
 30
0.0
  0
VERTEX
  5
43A
  8
LAYER_1
 10
-60.1124994084239
 20
-30.43917855091252
 30
0.0
  0
VERTEX
  5
43B
  8
LAYER_1
 10
-60.35536620249587
 20
-30.59338901464382
 30
0.0
  0
VERTEX
  5
43C
  8
LAYER_1
 10
-60.62143526999281
 20
-30.7815652188779
 30
0.0
  0
VERTEX
  5
43D
  8
LAYER_1
 10
-60.89898759086169
 20
-30.99383180712486
 30
0.0
  0
VERTEX
  5
43E
  8
LAYER_1
 10
-61.1763041450495
 20
-31.22031342289478
 30
0.0
  0
VERTEX
  5
43F
  8
LAYER_1
 10
-61.44166591250323
 20
-31.45113470969777
 30
0.0
  0
VERTEX
  5
440
  8
LAYER_1
 10
-61.68335387316984
 20
-31.67642031104391
 30
0.0
  0
VERTEX
  5
441
  8
LAYER_1
 10
-61.88964900699634
 20
-31.8862948704433
 30
0.0
  0
VERTEX
  5
442
  8
LAYER_1
 10
-62.0488322939297
 20
-32.07088303140603
 30
0.0
  0
VERTEX
  5
443
  8
LAYER_1
 10
-62.20785061828323
 20
-32.28103143375104
 30
0.0
  0
VERTEX
  5
444
  8
LAYER_1
 10
-62.36590969525414
 20
-32.50310225002808
 30
0.0
  0
VERTEX
  5
445
  8
LAYER_1
 10
-62.67968787590979
 20
-32.98407220544784
 30
0.0
  0
VERTEX
  5
446
  8
LAYER_1
 10
-62.99124237362015
 20
-33.5159150598045
 30
0.0
  0
VERTEX
  5
447
  8
LAYER_1
 10
-63.30164872610872
 20
-34.10075297523721
 30
0.0
  0
VERTEX
  5
448
  8
LAYER_1
 10
-63.61198247109897
 20
-34.74070811388518
 30
0.0
  0
VERTEX
  5
449
  8
LAYER_1
 10
-63.92331914631443
 20
-35.43790263788757
 30
0.0
  0
VERTEX
  5
44A
  8
LAYER_1
 10
-64.23673428947859
 20
-36.19445870938358
 30
0.0
  0
VERTEX
  5
44B
  8
LAYER_1
 10
-64.55330343831491
 20
-37.01249849051237
 30
0.0
  0
VERTEX
  5
44C
  8
LAYER_1
 10
-64.89074653803961
 20
-37.91249852627516
 30
0.0
  0
VERTEX
  5
44D
  8
LAYER_1
 10
-65.15061669422474
 20
-38.66249855607748
 30
0.0
  0
VERTEX
  5
44E
  8
LAYER_1
 10
-65.79694532600323
 20
-40.61249863356352
 30
0.0
  0
VERTEX
  5
44F
  8
LAYER_1
 10
-65.85063092200701
 20
-40.68749863654375
 30
0.0
  0
VERTEX
  5
450
  8
LAYER_1
 10
-65.90345100079973
 20
-40.80656114127487
 30
0.0
  0
VERTEX
  5
451
  8
LAYER_1
 10
-65.95505567244498
 20
-40.98749864846468
 30
0.0
  0
VERTEX
  5
452
  8
LAYER_1
 10
-66.03247700492913
 20
-41.2887508222984
 30
0.0
  0
VERTEX
  5
453
  8
LAYER_1
 10
-66.15679058466907
 20
-41.72797850606128
 30
0.0
  0
VERTEX
  5
454
  8
LAYER_1
 10
-66.46063651721344
 20
-42.72643006873537
 30
0.0
  0
VERTEX
  5
455
  8
LAYER_1
 10
-66.50841956113157
 20
-42.86836271813451
 30
0.0
  0
VERTEX
  5
456
  8
LAYER_1
 10
-66.55564109555006
 20
-42.9871618606678
 30
0.0
  0
VERTEX
  5
457
  8
LAYER_1
 10
-66.6076912474598
 20
-43.0899996302519
 30
0.0
  0
VERTEX
  5
458
  8
LAYER_1
 10
-66.66996014385168
 20
-43.18404816080353
 30
0.0
  0
VERTEX
  5
459
  8
LAYER_1
 10
-66.7478379117166
 20
-43.27647958623938
 30
0.0
  0
VERTEX
  5
45A
  8
LAYER_1
 10
-66.84671467804544
 20
-43.37446604047615
 30
0.0
  0
VERTEX
  5
45B
  8
LAYER_1
 10
-67.1290257140585
 20
-43.61579257101926
 30
0.0
  0
VERTEX
  5
45C
  8
LAYER_1
 10
-67.4277286605916
 20
-43.86866950739185
 30
0.0
  0
VERTEX
  5
45D
  8
LAYER_1
 10
-67.71636606605077
 20
-44.13005905326101
 30
0.0
  0
VERTEX
  5
45E
  8
LAYER_1
 10
-67.99431392214342
 20
-44.39907578405887
 30
0.0
  0
VERTEX
  5
45F
  8
LAYER_1
 10
-68.26094822057695
 20
-44.67483427521758
 30
0.0
  0
VERTEX
  5
460
  8
LAYER_1
 10
-68.51564495305875
 20
-44.95644910216929
 30
0.0
  0
VERTEX
  5
461
  8
LAYER_1
 10
-68.75778011129623
 20
-45.24303484034613
 30
0.0
  0
VERTEX
  5
462
  8
LAYER_1
 10
-68.98672968699677
 20
-45.53370606518023
 30
0.0
  0
VERTEX
  5
463
  8
LAYER_1
 10
-69.2018696718678
 20
-45.82757735210373
 30
0.0
  0
VERTEX
  5
464
  8
LAYER_1
 10
-69.4025760576167
 20
-46.12376327654878
 30
0.0
  0
VERTEX
  5
465
  8
LAYER_1
 10
-69.58822483595087
 20
-46.42137841394751
 30
0.0
  0
VERTEX
  5
466
  8
LAYER_1
 10
-69.75819199857771
 20
-46.71953733973206
 30
0.0
  0
VERTEX
  5
467
  8
LAYER_1
 10
-69.91185353720462
 20
-47.01735462933458
 30
0.0
  0
VERTEX
  5
468
  8
LAYER_1
 10
-70.048585443539
 20
-47.31394485818718
 30
0.0
  0
VERTEX
  5
469
  8
LAYER_1
 10
-70.16776370928824
 20
-47.60842260172203
 30
0.0
  0
VERTEX
  5
46A
  8
LAYER_1
 10
-70.26876432615975
 20
-47.89990243537125
 30
0.0
  0
VERTEX
  5
46B
  8
LAYER_1
 10
-70.35096328586093
 20
-48.18749893456697
 30
0.0
  0
VERTEX
  5
46C
  8
LAYER_1
 10
-70.41699852478065
 20
-48.48762531702008
 30
0.0
  0
VERTEX
  5
46D
  8
LAYER_1
 10
-70.47134334800637
 20
-48.81751923967715
 30
0.0
  0
VERTEX
  5
46E
  8
LAYER_1
 10
-70.51333862506121
 20
-49.16657131670654
 30
0.0
  0
VERTEX
  5
46F
  8
LAYER_1
 10
-70.54232522546835
 20
-49.52417216227664
 30
0.0
  0
VERTEX
  5
470
  8
LAYER_1
 10
-70.55764401875086
 20
-49.8797123905558
 30
0.0
  0
VERTEX
  5
471
  8
LAYER_1
 10
-70.55863587443193
 20
-50.22258261571238
 30
0.0
  0
VERTEX
  5
472
  8
LAYER_1
 10
-70.54464166203468
 20
-50.54217345191475
 30
0.0
  0
VERTEX
  5
473
  8
LAYER_1
 10
-70.51500225108224
 20
-50.82787551333128
 30
0.0
  0
VERTEX
  5
474
  8
LAYER_1
 10
-70.46294117597927
 20
-51.09656257455053
 30
0.0
  0
VERTEX
  5
475
  8
LAYER_1
 10
-70.38151712061246
 20
-51.38196048963748
 30
0.0
  0
VERTEX
  5
476
  8
LAYER_1
 10
-70.27221255399523
 20
-51.68192399337462
 30
0.0
  0
VERTEX
  5
477
  8
LAYER_1
 10
-70.13650994514104
 20
-51.99430782054445
 30
0.0
  0
VERTEX
  5
478
  8
LAYER_1
 10
-69.97589176306334
 20
-52.31696670592945
 30
0.0
  0
VERTEX
  5
479
  8
LAYER_1
 10
-69.79184047677555
 20
-52.64775538431212
 30
0.0
  0
VERTEX
  5
47A
  8
LAYER_1
 10
-69.5858385552911
 20
-52.98452859047495
 30
0.0
  0
VERTEX
  5
47B
  8
LAYER_1
 10
-69.35936846762347
 20
-53.32514105920043
 30
0.0
  0
VERTEX
  5
47C
  8
LAYER_1
 10
-69.11391268278607
 20
-53.66744752527106
 30
0.0
  0
VERTEX
  5
47D
  8
LAYER_1
 10
-68.85095366979235
 20
-54.00930272346932
 30
0.0
  0
VERTEX
  5
47E
  8
LAYER_1
 10
-68.57197389765575
 20
-54.34856138857771
 30
0.0
  0
VERTEX
  5
47F
  8
LAYER_1
 10
-68.27845583538972
 20
-54.68307825537872
 30
0.0
  0
VERTEX
  5
480
  8
LAYER_1
 10
-67.97188195200769
 20
-55.01070805865483
 30
0.0
  0
VERTEX
  5
481
  8
LAYER_1
 10
-67.6537347165231
 20
-55.32930553318855
 30
0.0
  0
VERTEX
  5
482
  8
LAYER_1
 10
-67.32549659794941
 20
-55.63672541376236
 30
0.0
  0
VERTEX
  5
483
  8
LAYER_1
 10
-66.98865006530002
 20
-55.93082243515876
 30
0.0
  0
VERTEX
  5
484
  8
LAYER_1
 10
-66.41885006683364
 20
-56.41823346689621
 30
0.0
  0
VERTEX
  5
485
  8
LAYER_1
 10
-66.27282271752654
 20
-56.54896767736035
 30
0.0
  0
VERTEX
  5
486
  8
LAYER_1
 10
-65.36766114940195
 20
-57.1768002040908
 30
0.0
  0
VERTEX
  5
487
  8
LAYER_1
 10
-64.97707851137729
 20
-57.44018746996512
 30
0.0
  0
VERTEX
  5
488
  8
LAYER_1
 10
-64.56605061602795
 20
-57.70271788926331
 30
0.0
  0
VERTEX
  5
489
  8
LAYER_1
 10
-64.13474455731351
 20
-57.96429731472536
 30
0.0
  0
VERTEX
  5
48A
  8
LAYER_1
 10
-63.68332742919349
 20
-58.22483159909123
 30
0.0
  0
VERTEX
  5
48B
  8
LAYER_1
 10
-63.21196632562739
 20
-58.48422659510089
 30
0.0
  0
VERTEX
  5
48C
  8
LAYER_1
 10
-62.72082834057471
 20
-58.7423881554943
 30
0.0
  0
VERTEX
  5
48D
  8
LAYER_1
 10
-62.21008056799501
 20
-58.99922213301143
 30
0.0
  0
VERTEX
  5
48E
  8
LAYER_1
 10
-61.67989010184778
 20
-59.25463438039226
 30
0.0
  0
VERTEX
  5
48F
  8
LAYER_1
 10
-60.71249943226576
 20
-59.71098816596339
 30
0.0
  0
VERTEX
  5
490
  8
LAYER_1
 10
-60.56249942630529
 20
-59.7778791953822
 30
0.0
  0
VERTEX
  5
491
  8
LAYER_1
 10
-59.77499939501286
 20
-60.1037348295317
 30
0.0
  0
VERTEX
  5
492
  8
LAYER_1
 10
-59.13749936968088
 20
-60.36269943426239
 30
0.0
  0
VERTEX
  5
493
  8
LAYER_1
 10
-57.7874993160367
 20
-60.81599724988542
 30
0.0
  0
VERTEX
  5
494
  8
LAYER_1
 10
-56.81596390268403
 20
-61.13278737160922
 30
0.0
  0
VERTEX
  5
495
  8
LAYER_1
 10
-55.86011584921926
 20
-61.4241787236243
 30
0.0
  0
VERTEX
  5
496
  8
LAYER_1
 10
-54.87420948967512
 20
-61.70361950299979
 30
0.0
  0
VERTEX
  5
497
  8
LAYER_1
 10
-53.81249915808439
 20
-61.98455790680479
 30
0.0
  0
VERTEX
  5
498
  8
LAYER_1
 10
-53.06249912828207
 20
-62.17707293268897
 30
0.0
  0
VERTEX
  5
499
  8
LAYER_1
 10
-50.28749901801348
 20
-62.76381911380567
 30
0.0
  0
VERTEX
  5
49A
  8
LAYER_1
 10
-49.6499989926815
 20
-62.88260951672531
 30
0.0
  0
VERTEX
  5
49B
  8
LAYER_1
 10
-48.62866450917101
 20
-63.05965049443661
 30
0.0
  0
VERTEX
  5
49C
  8
LAYER_1
 10
-47.50610000318323
 20
-63.23012085941701
 30
0.0
  0
VERTEX
  5
49D
  8
LAYER_1
 10
-46.30471826239705
 20
-63.39151083234593
 30
0.0
  0
VERTEX
  5
49E
  8
LAYER_1
 10
-45.04693207449134
 20
-63.54131063390283
 30
0.0
  0
VERTEX
  5
49F
  8
LAYER_1
 10
-43.75515422714503
 20
-63.67701048476714
 30
0.0
  0
VERTEX
  5
4A0
  8
LAYER_1
 10
-42.45179750803699
 20
-63.79610060561831
 30
0.0
  0
VERTEX
  5
4A1
  8
LAYER_1
 10
-41.15927470484612
 20
-63.89607121713577
 30
0.0
  0
VERTEX
  5
4A2
  8
LAYER_1
 10
-39.89999860525131
 20
-63.97441253999898
 30
0.0
  0
SEQEND
  5
D82
  8
LAYER_1
  0
POLYLINE
  5
72
  8
LAYER_1
 66
     1
 10
0.0
 20
0.0
 30
0.0
 70
     1
  0
VERTEX
  5
4A3
  8
LAYER_1
 10
48.0750048905611
 20
-62.9894485372416
 30
0.0
  0
VERTEX
  5
4A4
  8
LAYER_1
 10
48.37226516079485
 20
-62.88669845752437
 30
0.0
  0
VERTEX
  5
4A5
  8
LAYER_1
 10
48.71833771075185
 20
-62.74079935920206
 30
0.0
  0
VERTEX
  5
4A6
  8
LAYER_1
 10
48.91627152541517
 20
-62.63301126144914
 30
0.0
  0
VERTEX
  5
4A7
  8
LAYER_1
 10
49.10291228142081
 20
-62.50082831365501
 30
0.0
  0
VERTEX
  5
4A8
  8
LAYER_1
 10
49.27360644967027
 20
-62.34992524143069
 30
0.0
  0
VERTEX
  5
4A9
  8
LAYER_1
 10
49.42370050106501
 20
-62.18597677038725
 30
0.0
  0
VERTEX
  5
4AA
  8
LAYER_1
 10
49.5485409065065
 20
-62.01465762613573
 30
0.0
  0
VERTEX
  5
4AB
  8
LAYER_1
 10
49.64347413689621
 20
-61.8416425342872
 30
0.0
  0
VERTEX
  5
4AC
  8
LAYER_1
 10
49.67827133360336
 20
-61.7562723597675
 30
0.0
  0
VERTEX
  5
4AD
  8
LAYER_1
 10
49.70384666313563
 20
-61.67260622045268
 30
0.0
  0
VERTEX
  5
4AE
  8
LAYER_1
 10
49.71961843435568
 20
-61.59135345704414
 30
0.0
  0
VERTEX
  5
4AF
  8
LAYER_1
 10
49.72500495612621
 20
-61.51322341024324
 30
0.0
  0
VERTEX
  5
4B0
  8
LAYER_1
 10
49.71885975920688
 20
-61.37873629440378
 30
0.0
  0
VERTEX
  5
4B1
  8
LAYER_1
 10
49.70212778739679
 20
-61.23688531823278
 30
0.0
  0
VERTEX
  5
4B2
  8
LAYER_1
 10
49.67736446911786
 20
-61.10455551506213
 30
0.0
  0
VERTEX
  5
4B3
  8
LAYER_1
 10
49.64712523279201
 20
-60.99863191822373
 30
0.0
  0
VERTEX
  5
4B4
  8
LAYER_1
 10
49.61894919380251
 20
-60.9366823273114
 30
0.0
  0
VERTEX
  5
4B5
  8
LAYER_1
 10
49.57868044605947
 20
-60.86919008864412
 30
0.0
  0
VERTEX
  5
4B6
  8
LAYER_1
 10
49.46718262889157
 20
-60.72220869291988
 30
0.0
  0
VERTEX
  5
4B7
  8
LAYER_1
 10
49.32326739044611
 20
-60.56694978080138
 30
0.0
  0
VERTEX
  5
4B8
  8
LAYER_1
 10
49.15757033988083
 20
-60.41267540203904
 30
0.0
  0
VERTEX
  5
4B9
  8
LAYER_1
 10
48.98072708635351
 20
-60.26864760638326
 30
0.0
  0
VERTEX
  5
4BA
  8
LAYER_1
 10
48.80337323902191
 20
-60.14412844358442
 30
0.0
  0
VERTEX
  5
4BB
  8
LAYER_1
 10
48.63614440704379
 20
-60.04837996339295
 30
0.0
  0
VERTEX
  5
4BC
  8
LAYER_1
 10
48.55965049967409
 20
-60.01418911982196
 30
0.0
  0
VERTEX
  5
4BD
  8
LAYER_1
 10
48.48967619957692
 20
-59.99066421555921
 30
0.0
  0
VERTEX
  5
4BE
  8
LAYER_1
 10
48.36855157396798
 20
-59.95304365100532
 30
0.0
  0
VERTEX
  5
4BF
  8
LAYER_1
 10
48.2621317025142
 20
-59.91062856652827
 30
0.0
  0
VERTEX
  5
4C0
  8
LAYER_1
 10
48.18191060390011
 20
-59.86861818441101
 30
0.0
  0
VERTEX
  5
4C1
  8
LAYER_1
 10
48.13938229681025
 20
-59.83221172693644
 30
0.0
  0
VERTEX
  5
4C2
  8
LAYER_1
 10
48.09125969858906
 20
-59.75494767588456
 30
0.0
  0
VERTEX
  5
4C3
  8
LAYER_1
 10
47.38057693362853
 20
-59.71777437330929
 30
0.0
  0
VERTEX
  5
4C4
  8
LAYER_1
 10
47.05354470851303
 20
-59.7075962365858
 30
0.0
  0
VERTEX
  5
4C5
  8
LAYER_1
 10
46.68847035239524
 20
-59.70736320791814
 30
0.0
  0
VERTEX
  5
4C6
  8
LAYER_1
 10
46.32991742247955
 20
-59.71652539762361
 30
0.0
  0
VERTEX
  5
4C7
  8
LAYER_1
 10
46.02244947597039
 20
-59.73453291601956
 30
0.0
  0
VERTEX
  5
4C8
  8
LAYER_1
 10
45.37500478327274
 20
-59.78846476130511
 30
0.0
  0
VERTEX
  5
4C9
  8
LAYER_1
 10
45.37904866227821
 20
-60.4004821027459
 30
0.0
  0
VERTEX
  5
4CA
  8
LAYER_1
 10
45.38583842333864
 20
-60.75366761678896
 30
0.0
  0
VERTEX
  5
4CB
  8
LAYER_1
 10
45.4009459734853
 20
-61.0840057179757
 30
0.0
  0
VERTEX
  5
4CC
  8
LAYER_1
 10
45.42367091513607
 20
-61.38616627974811
 30
0.0
  0
VERTEX
  5
4CD
  8
LAYER_1
 10
45.45331285070886
 20
-61.65481917554819
 30
0.0
  0
VERTEX
  5
4CE
  8
LAYER_1
 10
45.48917138262156
 20
-61.88463427881793
 30
0.0
  0
VERTEX
  5
4CF
  8
LAYER_1
 10
45.53054611329204
 20
-62.07028146299933
 30
0.0
  0
VERTEX
  5
4D0
  8
LAYER_1
 10
45.57673664513821
 20
-62.20643060153439
 30
0.0
  0
VERTEX
  5
4D1
  8
LAYER_1
 10
45.60141896225777
 20
-62.25427773913515
 30
0.0
  0
VERTEX
  5
4D2
  8
LAYER_1
 10
45.62704258057798
 20
-62.28775156786509
 30
0.0
  0
VERTEX
  5
4D3
  8
LAYER_1
 10
45.7138846467551
 20
-62.39183416081242
 30
0.0
  0
VERTEX
  5
4D4
  8
LAYER_1
 10
45.74030231069172
 20
-62.4369137779285
 30
0.0
  0
VERTEX
  5
4D5
  8
LAYER_1
 10
45.7500047981739
 20
-62.46940494042342
 30
0.0
  0
VERTEX
  5
4D6
  8
LAYER_1
 10
45.7662262404599
 20
-62.5207389049162
 30
0.0
  0
VERTEX
  5
4D7
  8
LAYER_1
 10
45.81066143350196
 20
-62.58832544621558
 30
0.0
  0
VERTEX
  5
4D8
  8
LAYER_1
 10
45.87696667657625
 20
-62.66619339734669
 30
0.0
  0
VERTEX
  5
4D9
  8
LAYER_1
 10
45.9587982689589
 20
-62.74837159133462
 30
0.0
  0
VERTEX
  5
4DA
  8
LAYER_1
 10
46.04981250992604
 20
-62.82888886120453
 30
0.0
  0
VERTEX
  5
4DB
  8
LAYER_1
 10
46.14366569875384
 20
-62.90177403998153
 30
0.0
  0
VERTEX
  5
4DC
  8
LAYER_1
 10
46.23401413471843
 20
-62.96105596069073
 30
0.0
  0
VERTEX
  5
4DD
  8
LAYER_1
 10
46.31451411709594
 20
-63.00076345635726
 30
0.0
  0
VERTEX
  5
4DE
  8
LAYER_1
 10
46.44574418043982
 20
-63.03085753375056
 30
0.0
  0
VERTEX
  5
4DF
  8
LAYER_1
 10
46.64298878708455
 20
-63.05168803755693
 30
0.0
  0
VERTEX
  5
4E0
  8
LAYER_1
 10
46.88593084871387
 20
-63.06338554852945
 30
0.0
  0
VERTEX
  5
4E1
  8
LAYER_1
 10
47.15425327701155
 20
-63.06608064742119
 30
0.0
  0
VERTEX
  5
4E2
  8
LAYER_1
 10
47.42763898366136
 20
-63.05990391498521
 30
0.0
  0
VERTEX
  5
4E3
  8
LAYER_1
 10
47.68577088034705
 20
-63.04498593197457
 30
0.0
  0
VERTEX
  5
4E4
  8
LAYER_1
 10
47.90833187875238
 20
-63.02145727914235
 30
0.0
  0
SEQEND
  5
D83
  8
LAYER_1
  0
POLYLINE
  5
73
  8
LAYER_1
 66
     1
 10
0.0
 20
0.0
 30
0.0
 70
     1
  0
VERTEX
  5
4E5
  8
LAYER_1
 10
38.40199833801208
 20
-45.13083111145734
 30
0.0
  0
VERTEX
  5
4E6
  8
LAYER_1
 10
38.72572640591775
 20
-44.90179016664538
 30
0.0
  0
VERTEX
  5
4E7
  8
LAYER_1
 10
39.13263445016126
 20
-44.58749879151583
 30
0.0
  0
VERTEX
  5
4E8
  8
LAYER_1
 10
39.35596078010029
 20
-44.39830216893198
 30
0.0
  0
VERTEX
  5
4E9
  8
LAYER_1
 10
39.49958016018414
 20
-44.25053812594118
 30
0.0
  0
VERTEX
  5
4EA
  8
LAYER_1
 10
39.54553822575697
 20
-44.18724873012879
 30
0.0
  0
VERTEX
  5
4EB
  8
LAYER_1
 10
39.57641573193793
 20
-44.12838396921741
 30
0.0
  0
VERTEX
  5
4EC
  8
LAYER_1
 10
39.59382807141766
 20
-44.0719660065413
 30
0.0
  0
VERTEX
  5
4ED
  8
LAYER_1
 10
39.5993906368868
 20
-44.01601700543471
 30
0.0
  0
VERTEX
  5
4EE
  8
LAYER_1
 10
39.60502505348219
 20
-43.96025049269098
 30
0.0
  0
VERTEX
  5
4EF
  8
LAYER_1
 10
39.62116315149618
 20
-43.89998679932864
 30
0.0
  0
VERTEX
  5
4F0
  8
LAYER_1
 10
39.68235752413322
 20
-43.76871688235491
 30
0.0
  0
VERTEX
  5
4F1
  8
LAYER_1
 10
39.77778801950451
 20
-43.62770527772701
 30
0.0
  0
VERTEX
  5
4F2
  8
LAYER_1
 10
39.90226890231669
 20
-43.48245000865842
 30
0.0
  0
VERTEX
  5
4F3
  8
LAYER_1
 10
40.05061443727637
 20
-43.3384490983626
 30
0.0
  0
VERTEX
  5
4F4
  8
LAYER_1
 10
40.21763888909015
 20
-43.20120057005306
 30
0.0
  0
VERTEX
  5
4F5
  8
LAYER_1
 10
40.39815652246465
 20
-43.07620244694326
 30
0.0
  0
VERTEX
  5
4F6
  8
LAYER_1
 10
40.58698160210649
 20
-42.96895275224666
 30
0.0
  0
VERTEX
  5
4F7
  8
LAYER_1
 10
40.82510404355519
 20
-42.86064807807943
 30
0.0
  0
VERTEX
  5
4F8
  8
LAYER_1
 10
41.07096765307091
 20
-42.77184907970307
 30
0.0
  0
VERTEX
  5
4F9
  8
LAYER_1
 10
41.32294079883738
 20
-42.70280205423956
 30
0.0
  0
VERTEX
  5
4FA
  8
LAYER_1
 10
41.57939184903829
 20
-42.65375329881085
 30
0.0
  0
VERTEX
  5
4FB
  8
LAYER_1
 10
41.83868917185735
 20
-42.62494911053894
 30
0.0
  0
VERTEX
  5
4FC
  8
LAYER_1
 10
42.09920113547824
 20
-42.61663578654577
 30
0.0
  0
VERTEX
  5
4FD
  8
LAYER_1
 10
42.35929610808466
 20
-42.62905962395332
 30
0.0
  0
VERTEX
  5
4FE
  8
LAYER_1
 10
42.61734245786032
 20
-42.66246691988356
 30
0.0
  0
VERTEX
  5
4FF
  8
LAYER_1
 10
42.82630825759875
 20
-42.70253960127491
 30
0.0
  0
VERTEX
  5
500
  8
LAYER_1
 10
43.00540446363573
 20
-42.74644624352658
 30
0.0
  0
VERTEX
  5
501
  8
LAYER_1
 10
43.15673498540012
 20
-42.79526459965614
 30
0.0
  0
VERTEX
  5
502
  8
LAYER_1
 10
43.2824037323208
 20
-42.85007242268122
 30
0.0
  0
VERTEX
  5
503
  8
LAYER_1
 10
43.3845146138266
 20
-42.91194746561943
 30
0.0
  0
VERTEX
  5
504
  8
LAYER_1
 10
43.46517153934636
 20
-42.98196748148837
 30
0.0
  0
VERTEX
  5
505
  8
LAYER_1
 10
43.52647841830895
 20
-43.06121022330564
 30
0.0
  0
VERTEX
  5
506
  8
LAYER_1
 10
43.57053916014324
 20
-43.15075344408883
 30
0.0
  0
VERTEX
  5
507
  8
LAYER_1
 10
43.60334070341301
 20
-43.22211069826844
 30
0.0
  0
VERTEX
  5
508
  8
LAYER_1
 10
43.64545979422805
 20
-43.29227577523309
 30
0.0
  0
VERTEX
  5
509
  8
LAYER_1
 10
43.69146916653121
 20
-43.35317713489719
 30
0.0
  0
VERTEX
  5
50A
  8
LAYER_1
 10
43.73594155426537
 20
-43.39674323717506
 30
0.0
  0
VERTEX
  5
50B
  8
LAYER_1
 10
43.83215168018302
 20
-43.4496264052633
 30
0.0
  0
VERTEX
  5
50C
  8
LAYER_1
 10
43.9768393384646
 20
-43.50152201586619
 30
0.0
  0
VERTEX
  5
50D
  8
LAYER_1
 10
44.15995115969039
 20
-43.55056117225983
 30
0.0
  0
VERTEX
  5
50E
  8
LAYER_1
 10
44.37143377444069
 20
-43.59487497772034
 30
0.0
  0
VERTEX
  5
50F
  8
LAYER_1
 10
44.60123381329576
 20
-43.63259453552381
 30
0.0
  0
VERTEX
  5
510
  8
LAYER_1
 10
44.8392979068359
 20
-43.66185094894634
 30
0.0
  0
VERTEX
  5
511
  8
LAYER_1
 10
45.07557268564138
 20
-43.68077532126405
 30
0.0
  0
VERTEX
  5
512
  8
LAYER_1
 10
45.30000478029251
 20
-43.68749875575304
 30
0.0
  0
VERTEX
  5
513
  8
LAYER_1
 10
45.86250480264425
 20
-43.68749875575304
 30
0.0
  0
VERTEX
  5
514
  8
LAYER_1
 10
45.81151600463633
 20
-41.9624986872077
 30
0.0
  0
VERTEX
  5
515
  8
LAYER_1
 10
45.70769448073675
 20
-41.79933921038932
 30
0.0
  0
VERTEX
  5
516
  8
LAYER_1
 10
45.66458540029165
 20
-41.74397883372434
 30
0.0
  0
VERTEX
  5
517
  8
LAYER_1
 10
45.60520101714123
 20
-41.68665958409963
 30
0.0
  0
VERTEX
  5
518
  8
LAYER_1
 10
45.44365108206578
 20
-41.56870810191116
 30
0.0
  0
VERTEX
  5
519
  8
LAYER_1
 10
45.2351341541931
 20
-41.45061203570413
 30
0.0
  0
VERTEX
  5
51A
  8
LAYER_1
 10
44.99173971220594
 20
-41.33749865735878
 30
0.0
  0
VERTEX
  5
51B
  8
LAYER_1
 10
44.72555723478698
 20
-41.23449523875536
 30
0.0
  0
VERTEX
  5
51C
  8
LAYER_1
 10
44.44867620061895
 20
-41.1467290517741
 30
0.0
  0
VERTEX
  5
51D
  8
LAYER_1
 10
44.17318608838455
 20
-41.07932736829523
 30
0.0
  0
VERTEX
  5
51E
  8
LAYER_1
 10
43.91117637676651
 20
-41.03741746019899
 30
0.0
  0
VERTEX
  5
51F
  8
LAYER_1
 10
43.65479653673685
 20
-41.01160579527546
 30
0.0
  0
VERTEX
  5
520
  8
LAYER_1
 10
43.45831398857597
 20
-40.99799380671747
 30
0.0
  0
VERTEX
  5
521
  8
LAYER_1
 10
43.31776252192638
 20
-40.99801451064631
 30
0.0
  0
VERTEX
  5
522
  8
LAYER_1
 10
43.22917592643058
 20
-41.01310092318327
 30
0.0
  0
VERTEX
  5
523
  8
LAYER_1
 10
43.20313001462864
 20
-41.02674158771769
 30
0.0
  0
VERTEX
  5
524
  8
LAYER_1
 10
43.1885879917311
 20
-41.04468606044963
 30
0.0
  0
VERTEX
  5
525
  8
LAYER_1
 10
43.18505408144327
 20
-41.06711346839424
 30
0.0
  0
VERTEX
  5
526
  8
LAYER_1
 10
43.19203250747045
 20
-41.09420293856667
 30
0.0
  0
VERTEX
  5
527
  8
LAYER_1
 10
43.23554326329115
 20
-41.1630845736557
 30
0.0
  0
VERTEX
  5
528
  8
LAYER_1
 10
43.31515404883571
 20
-41.252763981838
 30
0.0
  0
VERTEX
  5
529
  8
LAYER_1
 10
43.37785586488437
 20
-41.32466763960058
 30
0.0
  0
VERTEX
  5
52A
  8
LAYER_1
 10
43.42585234218686
 20
-41.39411375062677
 30
0.0
  0
VERTEX
  5
52B
  8
LAYER_1
 10
43.45915912755645
 20
-41.46108473352318
 30
0.0
  0
VERTEX
  5
52C
  8
LAYER_1
 10
43.47779186780643
 20
-41.52556300689645
 30
0.0
  0
VERTEX
  5
52D
  8
LAYER_1
 10
43.48176620975011
 20
-41.58753098935318
 30
0.0
  0
VERTEX
  5
52E
  8
LAYER_1
 10
43.47109780020075
 20
-41.64697109950003
 30
0.0
  0
VERTEX
  5
52F
  8
LAYER_1
 10
43.44580228597165
 20
-41.7038657559436
 30
0.0
  0
VERTEX
  5
530
  8
LAYER_1
 10
43.40589531387609
 20
-41.75819737729053
 30
0.0
  0
VERTEX
  5
531
  8
LAYER_1
 10
43.35139253072738
 20
-41.80994838214744
 30
0.0
  0
VERTEX
  5
532
  8
LAYER_1
 10
43.28230958333879
 20
-41.85910118912095
 30
0.0
  0
VERTEX
  5
533
  8
LAYER_1
 10
43.19866211852361
 20
-41.90563821681769
 30
0.0
  0
VERTEX
  5
534
  8
LAYER_1
 10
43.10046578309515
 20
-41.94954188384428
 30
0.0
  0
VERTEX
  5
535
  8
LAYER_1
 10
42.86048908765146
 20
-42.02937881031353
 30
0.0
  0
VERTEX
  5
536
  8
LAYER_1
 10
42.56250467151403
 20
-42.09847131738171
 30
0.0
  0
VERTEX
  5
537
  8
LAYER_1
 10
41.92956188076586
 20
-42.23009931770984
 30
0.0
  0
VERTEX
  5
538
  8
LAYER_1
 10
41.68597448302267
 20
-42.29131805052624
 30
0.0
  0
VERTEX
  5
539
  8
LAYER_1
 10
41.46937608771125
 20
-42.35663824623428
 30
0.0
  0
VERTEX
  5
53A
  8
LAYER_1
 10
41.26356644784002
 20
-42.43143363567652
 30
0.0
  0
VERTEX
  5
53B
  8
LAYER_1
 10
41.05234531641737
 20
-42.52107794969552
 30
0.0
  0
VERTEX
  5
53C
  8
LAYER_1
 10
40.5488675909514
 20
-42.76640827483408
 30
0.0
  0
VERTEX
  5
53D
  8
LAYER_1
 10
40.13906438958606
 20
-42.98719933720344
 30
0.0
  0
VERTEX
  5
53E
  8
LAYER_1
 10
39.97039485838422
 20
-43.0910731513405
 30
0.0
  0
VERTEX
  5
53F
  8
LAYER_1
 10
39.81535704303684
 20
-43.19833439628057
 30
0.0
  0
VERTEX
  5
540
  8
LAYER_1
 10
39.66605869569432
 20
-43.31478450364979
 30
0.0
  0
VERTEX
  5
541
  8
LAYER_1
 10
39.51460756850707
 20
-43.44622490507419
 30
0.0
  0
VERTEX
  5
542
  8
LAYER_1
 10
39.17367798320011
 20
-43.77728231659296
 30
0.0
  0
VERTEX
  5
543
  8
LAYER_1
 10
38.55985140515477
 20
-44.40082193482469
 30
0.0
  0
VERTEX
  5
544
  8
LAYER_1
 10
38.51237388163045
 20
-44.55041036540543
 30
0.0
  0
VERTEX
  5
545
  8
LAYER_1
 10
38.48911029940334
 20
-44.60849274821686
 30
0.0
  0
VERTEX
  5
546
  8
LAYER_1
 10
38.46086579928131
 20
-44.65605719450308
 30
0.0
  0
VERTEX
  5
547
  8
LAYER_1
 10
38.43120631574203
 20
-44.68819533388566
 30
0.0
  0
VERTEX
  5
548
  8
LAYER_1
 10
38.4036977832632
 20
-44.69999879598618
 30
0.0
  0
VERTEX
  5
549
  8
LAYER_1
 10
38.37684035681638
 20
-44.71183473395649
 30
0.0
  0
VERTEX
  5
54A
  8
LAYER_1
 10
38.34895368673062
 20
-44.74406129773706
 30
0.0
  0
VERTEX
  5
54B
  8
LAYER_1
 10
38.32333295051977
 20
-44.7917566121323
 30
0.0
  0
VERTEX
  5
54C
  8
LAYER_1
 10
38.30327332569772
 20
-44.84999880194664
 30
0.0
  0
VERTEX
  5
54D
  8
LAYER_1
 10
38.28940126044893
 20
-44.89081853647885
 30
0.0
  0
VERTEX
  5
54E
  8
LAYER_1
 10
38.27018268765485
 20
-44.92394565732447
 30
0.0
  0
VERTEX
  5
54F
  8
LAYER_1
 10
38.2439913940073
 20
-44.95007365221434
 30
0.0
  0
VERTEX
  5
550
  8
LAYER_1
 10
38.20920116619817
 20
-44.96989600887932
 30
0.0
  0
VERTEX
  5
551
  8
LAYER_1
 10
38.10731905486251
 20
-44.99339775845795
 30
0.0
  0
VERTEX
  5
552
  8
LAYER_1
 10
37.9515266471827
 20
-44.9999988079071
 30
0.0
  0
VERTEX
  5
553
  8
LAYER_1
 10
37.79523512192321
 20
-45.00532203228265
 30
0.0
  0
VERTEX
  5
554
  8
LAYER_1
 10
37.70361080759691
 20
-45.02513157334317
 30
0.0
  0
VERTEX
  5
555
  8
LAYER_1
 10
37.678103976283
 20
-45.04226865072431
 30
0.0
  0
VERTEX
  5
556
  8
LAYER_1
 10
37.66403009380156
 20
-45.06518723298952
 30
0.0
  0
VERTEX
  5
557
  8
LAYER_1
 10
37.65981120885229
 20
-45.09460729537638
 30
0.0
  0
VERTEX
  5
558
  8
LAYER_1
 10
37.66386937013492
 20
-45.13124881312251
 30
0.0
  0
VERTEX
  5
559
  8
LAYER_1
 10
37.67492251671267
 20
-45.16609864409716
 30
0.0
  0
VERTEX
  5
55A
  8
LAYER_1
 10
37.69357903970888
 20
-45.19629669426224
 30
0.0
  0
VERTEX
  5
55B
  8
LAYER_1
 10
37.75119416818823
 20
-45.24273887144862
 30
0.0
  0
VERTEX
  5
55C
  8
LAYER_1
 10
37.83169866203609
 20
-45.27057818325149
 30
0.0
  0
VERTEX
  5
55D
  8
LAYER_1
 10
37.93007642771556
 20
-45.27981746824068
 30
0.0
  0
VERTEX
  5
55E
  8
LAYER_1
 10
38.04131137168977
 20
-45.27045956498601
 30
0.0
  0
VERTEX
  5
55F
  8
LAYER_1
 10
38.16038740042185
 20
-45.24250731205736
 30
0.0
  0
VERTEX
  5
560
  8
LAYER_1
 10
38.28228842037492
 20
-45.19596354802452
 30
0.0
  0
SEQEND
  5
D84
  8
LAYER_1
  0
POLYLINE
  5
74
  8
LAYER_1
 66
     1
 10
0.0
 20
0.0
 30
0.0
 70
     1
  0
VERTEX
  5
561
  8
LAYER_1
 10
15.0153520853535
 20
-22.68464941270992
 30
0.0
  0
VERTEX
  5
562
  8
LAYER_1
 10
15.06202798273506
 20
-22.63797351532835
 30
0.0
  0
VERTEX
  5
563
  8
LAYER_1
 10
15.83726581154436
 20
-22.45594571293631
 30
0.0
  0
VERTEX
  5
564
  8
LAYER_1
 10
16.70850627368158
 20
-22.25536725621079
 30
0.0
  0
VERTEX
  5
565
  8
LAYER_1
 10
17.49770306041169
 20
-22.08364453279535
 30
0.0
  0
VERTEX
  5
566
  8
LAYER_1
 10
18.24240148033342
 20
-21.93437629547029
 30
0.0
  0
VERTEX
  5
567
  8
LAYER_1
 10
18.98014684204551
 20
-21.80116129701588
 30
0.0
  0
VERTEX
  5
568
  8
LAYER_1
 10
19.7484844541467
 20
-21.67759829021242
 30
0.0
  0
VERTEX
  5
569
  8
LAYER_1
 10
20.58495962523573
 20
-21.5572860278402
 30
0.0
  0
VERTEX
  5
56A
  8
LAYER_1
 10
21.52711766391133
 20
-21.43382326267951
 30
0.0
  0
VERTEX
  5
56B
  8
LAYER_1
 10
22.61250387877226
 20
-21.30080874751064
 30
0.0
  0
VERTEX
  5
56C
  8
LAYER_1
 10
23.28750390559435
 20
-21.22004983037774
 30
0.0
  0
VERTEX
  5
56D
  8
LAYER_1
 10
26.21250402182341
 20
-20.98093710141266
 30
0.0
  0
VERTEX
  5
56E
  8
LAYER_1
 10
27.86250408738852
 20
-20.84918282480793
 30
0.0
  0
VERTEX
  5
56F
  8
LAYER_1
 10
48.78750491887331
 20
-20.71694004720526
 30
0.0
  0
VERTEX
  5
570
  8
LAYER_1
 10
50.28750497847795
 20
-20.62923119087934
 30
0.0
  0
VERTEX
  5
571
  8
LAYER_1
 10
51.75177265256868
 20
-20.52952783260218
 30
0.0
  0
VERTEX
  5
572
  8
LAYER_1
 10
53.21909922930011
 20
-20.40242647784971
 30
0.0
  0
VERTEX
  5
573
  8
LAYER_1
 10
54.6702920258063
 20
-20.25047226915429
 30
0.0
  0
VERTEX
  5
574
  8
LAYER_1
 10
56.08615835922133
 20
-20.07621034904833
 30
0.0
  0
VERTEX
  5
575
  8
LAYER_1
 10
57.44750554667926
 20
-19.88218586006422
 30
0.0
  0
VERTEX
  5
576
  8
LAYER_1
 10
58.73514090531417
 20
-19.67094394473433
 30
0.0
  0
VERTEX
  5
577
  8
LAYER_1
 10
59.34531893542737
 20
-19.55966180923109
 30
0.0
  0
VERTEX
  5
578
  8
LAYER_1
 10
59.92987175226011
 20
-19.44502974559106
 30
0.0
  0
VERTEX
  5
579
  8
LAYER_1
 10
60.48640027045411
 20
-19.32736589663077
 30
0.0
  0
VERTEX
  5
57A
  8
LAYER_1
 10
61.01250540465117
 20
-19.2069884051668
 30
0.0
  0
VERTEX
  5
57B
  8
LAYER_1
 10
62.26412667607093
 20
-18.90080227131581
 30
0.0
  0
VERTEX
  5
57C
  8
LAYER_1
 10
62.57237519534287
 20
-18.81597217927013
 30
0.0
  0
VERTEX
  5
57D
  8
LAYER_1
 10
62.73750547319651
 20
-18.75883100288582
 30
0.0
  0
VERTEX
  5
57E
  8
LAYER_1
 10
62.88750547915697
 20
-18.69413774398829
 30
0.0
  0
VERTEX
  5
57F
  8
LAYER_1
 10
63.63750550895929
 20
-18.45191352385834
 30
0.0
  0
VERTEX
  5
580
  8
LAYER_1
 10
63.96125226452186
 20
-18.34303533580148
 30
0.0
  0
VERTEX
  5
581
  8
LAYER_1
 10
64.28157601702773
 20
-18.22671056041231
 30
0.0
  0
VERTEX
  5
582
  8
LAYER_1
 10
64.59791420504095
 20
-18.10325009135802
 30
0.0
  0
VERTEX
  5
583
  8
LAYER_1
 10
64.90970426712563
 20
-17.97296482230583
 30
0.0
  0
VERTEX
  5
584
  8
LAYER_1
 10
65.2163836418458
 20
-17.83616564692295
 30
0.0
  0
VERTEX
  5
585
  8
LAYER_1
 10
65.51738976776552
 20
-17.69316345887658
 30
0.0
  0
VERTEX
  5
586
  8
LAYER_1
 10
65.81216008344887
 20
-17.54426915183392
 30
0.0
  0
VERTEX
  5
587
  8
LAYER_1
 10
66.10013202745989
 20
-17.38979361946218
 30
0.0
  0
VERTEX
  5
588
  8
LAYER_1
 10
66.38074303836268
 20
-17.23004775542858
 30
0.0
  0
VERTEX
  5
589
  8
LAYER_1
 10
66.65343055472125
 20
-17.0653424534003
 30
0.0
  0
VERTEX
  5
58A
  8
LAYER_1
 10
66.91763201509971
 20
-16.89598860704456
 30
0.0
  0
VERTEX
  5
58B
  8
LAYER_1
 10
67.1727848580621
 20
-16.72229711002858
 30
0.0
  0
VERTEX
  5
58C
  8
LAYER_1
 10
67.41832652217249
 20
-16.54457885601954
 30
0.0
  0
VERTEX
  5
58D
  8
LAYER_1
 10
67.65369444599494
 20
-16.36314473868467
 30
0.0
  0
VERTEX
  5
58E
  8
LAYER_1
 10
67.87832606809351
 20
-16.17830565169115
 30
0.0
  0
VERTEX
  5
58F
  8
LAYER_1
 10
68.09165882703226
 20
-15.99037248870621
 30
0.0
  0
VERTEX
  5
590
  8
LAYER_1
 10
68.57081198715295
 20
-15.55306060652024
 30
0.0
  0
VERTEX
  5
591
  8
LAYER_1
 10
68.28546372849135
 20
-15.1470924953287
 30
0.0
  0
VERTEX
  5
592
  8
LAYER_1
 10
68.17785019935376
 20
-15.0032380834767
 30
0.0
  0
VERTEX
  5
593
  8
LAYER_1
 10
68.04733700509469
 20
-14.84401306374565
 30
0.0
  0
VERTEX
  5
594
  8
LAYER_1
 10
67.73849709600941
 20
-14.50143668437156
 30
0.0
  0
VERTEX
  5
595
  8
LAYER_1
 10
67.40071495083018
 20
-14.16333432465661
 30
0.0
  0
VERTEX
  5
596
  8
LAYER_1
 10
67.23402396145366
 20
-14.0097018294995
 30
0.0
  0
VERTEX
  5
597
  8
LAYER_1
 10
67.07576151915163
 20
-13.87367695205099
 30
0.0
  0
VERTEX
  5
598
  8
LAYER_1
 10
66.83879103044016
 20
-13.69598179944633
 30
0.0
  0
VERTEX
  5
599
  8
LAYER_1
 10
66.54886552298768
 20
-13.49953592023108
 30
0.0
  0
VERTEX
  5
59A
  8
LAYER_1
 10
66.29230489942651
 20
-13.34049070573026
 30
0.0
  0
VERTEX
  5
59B
  8
LAYER_1
 10
66.20351138867778
 20
-13.29254065753682
 30
0.0
  0
VERTEX
  5
59C
  8
LAYER_1
 10
66.155429062389
 20
-13.27499754726887
 30
0.0
  0
VERTEX
  5
59D
  8
LAYER_1
 10
66.12508694620641
 20
-13.26747080135193
 30
0.0
  0
VERTEX
  5
59E
  8
LAYER_1
 10
66.08834664953923
 20
-13.24697718623157
 30
0.0
  0
VERTEX
  5
59F
  8
LAYER_1
 10
66.01420692083059
 20
-13.17960908416316
 30
0.0
  0
VERTEX
  5
5A0
  8
LAYER_1
 10
65.9350415277982
 20
-13.08422062105746
 30
0.0
  0
VERTEX
  5
5A1
  8
LAYER_1
 10
65.23627353626014
 20
-12.73794306917745
 30
0.0
  0
VERTEX
  5
5A2
  8
LAYER_1
 10
64.85815034504232
 20
-12.55466148987654
 30
0.0
  0
VERTEX
  5
5A3
  8
LAYER_1
 10
64.49250262180911
 20
-12.38608268199234
 30
0.0
  0
VERTEX
  5
5A4
  8
LAYER_1
 10
64.13730652140266
 20
-12.23168737364929
 30
0.0
  0
VERTEX
  5
5A5
  8
LAYER_1
 10
63.79053819866513
 20
-12.09095629297186
 30
0.0
  0
VERTEX
  5
5A6
  8
LAYER_1
 10
63.45017380843868
 20
-11.9633701680845
 30
0.0
  0
VERTEX
  5
5A7
  8
LAYER_1
 10
63.11418950556548
 20
-11.84840972711165
 30
0.0
  0
VERTEX
  5
5A8
  8
LAYER_1
 10
62.78056144488767
 20
-11.74555569817779
 30
0.0
  0
VERTEX
  5
5A9
  8
LAYER_1
 10
62.44726578124742
 20
-11.65428880940736
 30
0.0
  0
VERTEX
  5
5AA
  8
LAYER_1
 10
62.11227866948688
 20
-11.57408978892482
 30
0.0
  0
VERTEX
  5
5AB
  8
LAYER_1
 10
61.77357626444822
 20
-11.50443936485463
 30
0.0
  0
VERTEX
  5
5AC
  8
LAYER_1
 10
61.42913472097361
 20
-11.44481826532125
 30
0.0
  0
VERTEX
  5
5AD
  8
LAYER_1
 10
61.07693019390518
 20
-11.39470721844912
 30
0.0
  0
VERTEX
  5
5AE
  8
LAYER_1
 10
60.71493883808512
 20
-11.3535869523627
 30
0.0
  0
VERTEX
  5
5AF
  8
LAYER_1
 10
60.34113680835556
 20
-11.32093819518645
 30
0.0
  0
VERTEX
  5
5B0
  8
LAYER_1
 10
59.95350025955868
 20
-11.29624167504483
 30
0.0
  0
VERTEX
  5
5B1
  8
LAYER_1
 10
59.55000534653664
 20
-11.27897812006228
 30
0.0
  0
VERTEX
  5
5B2
  8
LAYER_1
 10
59.09230728324096
 20
-11.26629198868174
 30
0.0
  0
VERTEX
  5
5B3
  8
LAYER_1
 10
58.69177238483607
 20
-11.2630829331457
 30
0.0
  0
VERTEX
  5
5B4
  8
LAYER_1
 10
58.31556164658003
 20
-11.27196194606216
 30
0.0
  0
VERTEX
  5
5B5
  8
LAYER_1
 10
57.93083606373089
 20
-11.29554002003909
 30
0.0
  0
VERTEX
  5
5B6
  8
LAYER_1
 10
57.50475663154672
 20
-11.3364281476845
 30
0.0
  0
VERTEX
  5
5B7
  8
LAYER_1
 10
57.00448434528556
 20
-11.39723732160636
 30
0.0
  0
VERTEX
  5
5B8
  8
LAYER_1
 10
55.65000519156456
 20
-11.58906277871139
 30
0.0
  0
VERTEX
  5
5B9
  8
LAYER_1
 10
54.52322793791852
 20
-11.75352326447504
 30
0.0
  0
VERTEX
  5
5BA
  8
LAYER_1
 10
53.66057533537249
 20
-11.87249112464216
 30
0.0
  0
VERTEX
  5
5BB
  8
LAYER_1
 10
53.01630074968986
 20
-11.94715021693685
 30
0.0
  0
VERTEX
  5
5BC
  8
LAYER_1
 10
52.7617593899734
 20
-11.9682339306708
 30
0.0
  0
VERTEX
  5
5BD
  8
LAYER_1
 10
52.54465754663406
 20
-11.97868439908316
 30
0.0
  0
VERTEX
  5
5BE
  8
LAYER_1
 10
52.35927689039229
 20
-11.97864960438946
 30
0.0
  0
VERTEX
  5
5BF
  8
LAYER_1
 10
52.19989909196849
 20
-11.96827752880519
 30
0.0
  0
VERTEX
  5
5C0
  8
LAYER_1
 10
52.0608058220831
 20
-11.94771615454587
 30
0.0
  0
VERTEX
  5
5C1
  8
LAYER_1
 10
51.93627875145656
 20
-11.91711346382701
 30
0.0
  0
VERTEX
  5
5C2
  8
LAYER_1
 10
51.82059955080928
 20
-11.87661743886411
 30
0.0
  0
VERTEX
  5
5C3
  8
LAYER_1
 10
51.70804989086167
 20
-11.82637606187269
 30
0.0
  0
VERTEX
  5
5C4
  8
LAYER_1
 10
51.46946587594724
 20
-11.69724918066632
 30
0.0
  0
VERTEX
  5
5C5
  8
LAYER_1
 10
51.28210310983798
 20
-11.57765834608602
 30
0.0
  0
VERTEX
  5
5C6
  8
LAYER_1
 10
51.13185653068403
 20
-11.45243001979695
 30
0.0
  0
VERTEX
  5
5C7
  8
LAYER_1
 10
51.06870266601494
 20
-11.38580654928451
 30
0.0
  0
VERTEX
  5
5C8
  8
LAYER_1
 10
51.01248887384426
 20
-11.31549940827235
 30
0.0
  0
VERTEX
  5
5C9
  8
LAYER_1
 10
50.91776287467761
 20
-11.16080171798549
 30
0.0
  0
VERTEX
  5
5CA
  8
LAYER_1
 10
50.86727311736759
 20
-11.05747750421976
 30
0.0
  0
VERTEX
  5
5CB
  8
LAYER_1
 10
50.83003870263013
 20
-10.96305903429527
 30
0.0
  0
VERTEX
  5
5CC
  8
LAYER_1
 10
50.80525818040999
 20
-10.86342836569662
 30
0.0
  0
VERTEX
  5
5CD
  8
LAYER_1
 10
50.7921301006519
 20
-10.74446755590836
 30
0.0
  0
VERTEX
  5
5CE
  8
LAYER_1
 10
50.78985301330061
 20
-10.59205866241508
 30
0.0
  0
VERTEX
  5
5CF
  8
LAYER_1
 10
50.79762546830084
 20
-10.39208374270134
 30
0.0
  0
VERTEX
  5
5D0
  8
LAYER_1
 10
50.84011320513488
 20
-9.792964054550794
 30
0.0
  0
VERTEX
  5
5D1
  8
LAYER_1
 10
50.92182331635162
 20
-8.737497366964817
 30
0.0
  0
VERTEX
  5
5D2
  8
LAYER_1
 10
51.01936379693755
 20
-5.542811975577521
 30
0.0
  0
VERTEX
  5
5D3
  8
LAYER_1
 10
51.25343441154962
 20
-5.25416599047503
 30
0.0
  0
VERTEX
  5
5D4
  8
LAYER_1
 10
51.36207354933493
 20
-5.132358061295894
 30
0.0
  0
VERTEX
  5
5D5
  8
LAYER_1
 10
51.4848405357457
 20
-5.014079351775603
 30
0.0
  0
VERTEX
  5
5D6
  8
LAYER_1
 10
51.60667211594663
 20
-4.912848072375533
 30
0.0
  0
VERTEX
  5
5D7
  8
LAYER_1
 10
51.71250503510237
 20
-4.842182433557056
 30
0.0
  0
VERTEX
  5
5D8
  8
LAYER_1
 10
52.09594762496373
 20
-4.628171030906685
 30
0.0
  0
VERTEX
  5
5D9
  8
LAYER_1
 10
52.25439020588438
 20
-4.537497200071812
 30
0.0
  0
VERTEX
  5
5DA
  8
LAYER_1
 10
52.98961638834032
 20
-4.199997186660767
 30
0.0
  0
VERTEX
  5
5DB
  8
LAYER_1
 10
53.75197811646672
 20
-3.838244112034687
 30
0.0
  0
VERTEX
  5
5DC
  8
LAYER_1
 10
54.55244507893889
 20
-3.442433547191754
 30
0.0
  0
VERTEX
  5
5DD
  8
LAYER_1
 10
55.38004758708149
 20
-3.022369921133787
 30
0.0
  0
VERTEX
  5
5DE
  8
LAYER_1
 10
55.4066549120592
 20
-2.942547946200705
 30
0.0
  0
VERTEX
  5
5DF
  8
LAYER_1
 10
55.40334484064419
 20
-2.907295761816517
 30
0.0
  0
VERTEX
  5
5E0
  8
LAYER_1
 10
55.37466326598803
 20
-2.870319103378788
 30
0.0
  0
VERTEX
  5
5E1
  8
LAYER_1
 10
55.32540971213387
 20
-2.836008118980087
 30
0.0
  0
VERTEX
  5
5E2
  8
LAYER_1
 10
55.26038370312486
 20
-2.808752956712979
 30
0.0
  0
VERTEX
  5
5E3
  8
LAYER_1
 10
55.12727261311176
 20
-2.757065209869664
 30
0.0
  0
VERTEX
  5
5E4
  8
LAYER_1
 10
55.07820691199278
 20
-2.730781393792973
 30
0.0
  0
VERTEX
  5
5E5
  8
LAYER_1
 10
55.0500051677227
 20
-2.708586562365625
 30
0.0
  0
VERTEX
  5
5E6
  8
LAYER_1
 10
55.01250516623259
 20
-2.662393182572899
 30
0.0
  0
VERTEX
  5
5E7
  8
LAYER_1
 10
54.41250514239073
 20
-2.422907324849149
 30
0.0
  0
VERTEX
  5
5E8
  8
LAYER_1
 10
53.92266137292609
 20
-2.238125284710847
 30
0.0
  0
VERTEX
  5
5E9
  8
LAYER_1
 10
53.72221214621095
 20
-2.16973819890114
 30
0.0
  0
VERTEX
  5
5EA
  8
LAYER_1
 10
53.58750510960817
 20
-2.130161371394692
 30
0.0
  0
VERTEX
  5
5EB
  8
LAYER_1
 10
53.41758322785608
 20
-2.077552953099817
 30
0.0
  0
VERTEX
  5
5EC
  8
LAYER_1
 10
53.35731955358642
 20
-2.049880714503882
 30
0.0
  0
VERTEX
  5
5ED
  8
LAYER_1
 10
53.32500509917736
 20
-2.025859656310544
 30
0.0
  0
VERTEX
  5
5EE
  8
LAYER_1
 10
53.27493673781282
 20
-1.996805985661171
 30
0.0
  0
VERTEX
  5
5EF
  8
LAYER_1
 10
53.16633321787231
 20
-1.955431089387895
 30
0.0
  0
VERTEX
  5
5F0
  8
LAYER_1
 10
52.83750507980585
 20
-1.857778298219131
 30
0.0
  0
VERTEX
  5
5F1
  8
LAYER_1
 10
52.38750506192446
 20
-1.740738559481159
 30
0.0
  0
VERTEX
  5
5F2
  8
LAYER_1
 10
50.36250498145819
 20
-1.215335600078404
 30
0.0
  0
VERTEX
  5
5F3
  8
LAYER_1
 10
49.95000496506691
 20
-1.165966366800703
 30
0.0
  0
VERTEX
  5
5F4
  8
LAYER_1
 10
49.61461432673968
 20
-1.111514861455325
 30
0.0
  0
VERTEX
  5
5F5
  8
LAYER_1
 10
49.47829596194788
 20
-1.079709027669896
 30
0.0
  0
VERTEX
  5
5F6
  8
LAYER_1
 10
49.38750494271517
 20
-1.049926548525519
 30
0.0
  0
VERTEX
  5
5F7
  8
LAYER_1
 10
49.2375049367547
 20
-0.9832559635280376
 30
0.0
  0
VERTEX
  5
5F8
  8
LAYER_1
 10
48.37500490248203
 20
-0.8605956980746328
 30
0.0
  0
VERTEX
  5
5F9
  8
LAYER_1
 10
46.65000483393669
 20
-0.6283121472768016
 30
0.0
  0
VERTEX
  5
5FA
  8
LAYER_1
 10
45.78750479966402
 20
-0.5186888619323469
 30
0.0
  0
VERTEX
  5
5FB
  8
LAYER_1
 10
40.31250458210707
 20
-0.4595094580598982
 30
0.0
  0
VERTEX
  5
5FC
  8
LAYER_1
 10
38.13750449568033
 20
-0.6672337529836341
 30
0.0
  0
VERTEX
  5
5FD
  8
LAYER_1
 10
37.68750447779894
 20
-0.7527594269936628
 30
0.0
  0
VERTEX
  5
5FE
  8
LAYER_1
 10
36.86250444501638
 20
-0.8945189084607961
 30
0.0
  0
VERTEX
  5
5FF
  8
LAYER_1
 10
35.97671213938672
 20
-1.054214175592233
 30
0.0
  0
VERTEX
  5
600
  8
LAYER_1
 10
35.18296859110486
 20
-1.212884757757912
 30
0.0
  0
VERTEX
  5
601
  8
LAYER_1
 10
34.48836794034897
 20
-1.369030095966909
 30
0.0
  0
VERTEX
  5
602
  8
LAYER_1
 10
33.90000432729721
 20
-1.521149631228297
 30
0.0
  0
VERTEX
  5
603
  8
LAYER_1
 10
33.26250430196524
 20
-1.700128098965095
 30
0.0
  0
VERTEX
  5
604
  8
LAYER_1
 10
33.15000429749489
 20
-1.741578514245717
 30
0.0
  0
VERTEX
  5
605
  8
LAYER_1
 10
32.66250427812338
 20
-1.900714626619234
 30
0.0
  0
VERTEX
  5
606
  8
LAYER_1
 10
32.26373298132882
 20
-2.029933331077718
 30
0.0
  0
VERTEX
  5
607
  8
LAYER_1
 10
31.90992900420244
 20
-2.152875744816676
 30
0.0
  0
VERTEX
  5
608
  8
LAYER_1
 10
31.61082898021041
 20
-2.266021135215698
 30
0.0
  0
VERTEX
  5
609
  8
LAYER_1
 10
31.37616954281896
 20
-2.365848769654377
 30
0.0
  0
VERTEX
  5
60A
  8
LAYER_1
 10
31.1951455695952
 20
-2.44293479075499
 30
0.0
  0
VERTEX
  5
60B
  8
LAYER_1
 10
31.09179196963923
 20
-2.474997118115425
 30
0.0
  0
VERTEX
  5
60C
  8
LAYER_1
 10
31.02864199846773
 20
-2.493696428990067
 30
0.0
  0
VERTEX
  5
60D
  8
LAYER_1
 10
30.90158726830231
 20
-2.544657847594336
 30
0.0
  0
VERTEX
  5
60E
  8
LAYER_1
 10
30.52292390337947
 20
-2.71254792387381
 30
0.0
  0
VERTEX
  5
60F
  8
LAYER_1
 10
30.09012261965028
 20
-2.917029178717964
 30
0.0
  0
VERTEX
  5
610
  8
LAYER_1
 10
29.73750416189432
 20
-3.096463443890912
 30
0.0
  0
VERTEX
  5
611
  8
LAYER_1
 10
28.35000410676003
 20
-3.839102604966058
 30
0.0
  0
VERTEX
  5
612
  8
LAYER_1
 10
28.19316823931509
 20
-3.929646382186453
 30
0.0
  0
VERTEX
  5
613
  8
LAYER_1
 10
28.07939265358023
 20
-4.011622417547457
 30
0.0
  0
VERTEX
  5
614
  8
LAYER_1
 10
27.92810000251452
 20
-4.120287097265154
 30
0.0
  0
VERTEX
  5
615
  8
LAYER_1
 10
27.68106353118904
 20
-4.274997189640999
 30
0.0
  0
VERTEX
  5
616
  8
LAYER_1
 10
27.36584585452707
 20
-4.462497197091579
 30
0.0
  0
VERTEX
  5
617
  8
LAYER_1
 10
26.5649081508637
 20
-5.062497220933437
 30
0.0
  0
VERTEX
  5
618
  8
LAYER_1
 10
26.18507658714232
 20
-5.360613176728135
 30
0.0
  0
VERTEX
  5
619
  8
LAYER_1
 10
25.77771371319043
 20
-5.704533252450886
 30
0.0
  0
VERTEX
  5
61A
  8
LAYER_1
 10
25.35666748407715
 20
-6.080925988142533
 30
0.0
  0
VERTEX
  5
61B
  8
LAYER_1
 10
24.93578585487161
 20
-6.476459923843915
 30
0.0
  0
VERTEX
  5
61C
  8
LAYER_1
 10
24.52891678064293
 20
-6.877803599595877
 30
0.0
  0
VERTEX
  5
61D
  8
LAYER_1
 10
24.14990821646023
 20
-7.271625555439259
 30
0.0
  0
VERTEX
  5
61E
  8
LAYER_1
 10
23.81260811739265
 20
-7.644594331414904
 30
0.0
  0
VERTEX
  5
61F
  8
LAYER_1
 10
23.5308644385093
 20
-7.983378467563654
 30
0.0
  0
VERTEX
  5
620
  8
LAYER_1
 10
23.06622346203709
 20
-8.597454473964483
 30
0.0
  0
VERTEX
  5
621
  8
LAYER_1
 10
22.58863523324835
 20
-9.26531443764881
 30
0.0
  0
VERTEX
  5
622
  8
LAYER_1
 10
22.17646369664004
 20
-9.874486156787068
 30
0.0
  0
VERTEX
  5
623
  8
LAYER_1
 10
22.01939792055884
 20
-10.12191636157968
 30
0.0
  0
VERTEX
  5
624
  8
LAYER_1
 10
21.90807279670911
 20
-10.31249742954969
 30
0.0
  0
VERTEX
  5
625
  8
LAYER_1
 10
21.75168885458162
 20
-10.59046619059518
 30
0.0
  0
VERTEX
  5
626
  8
LAYER_1
 10
21.60360797042014
 20
-10.83749745041132
 30
0.0
  0
VERTEX
  5
627
  8
LAYER_1
 10
21.43897211866692
 20
-11.11757558654062
 30
0.0
  0
VERTEX
  5
628
  8
LAYER_1
 10
21.2427858076486
 20
-11.47499747574329
 30
0.0
  0
VERTEX
  5
629
  8
LAYER_1
 10
21.0241317453355
 20
-11.88749749213457
 30
0.0
  0
VERTEX
  5
62A
  8
LAYER_1
 10
19.85095584449732
 20
-14.13749758154154
 30
0.0
  0
VERTEX
  5
62B
  8
LAYER_1
 10
19.5582407036199
 20
-14.69999760389328
 30
0.0
  0
VERTEX
  5
62C
  8
LAYER_1
 10
19.19874832177261
 20
-15.37499763071537
 30
0.0
  0
VERTEX
  5
62D
  8
LAYER_1
 10
18.86635401697239
 20
-16.03464255260692
 30
0.0
  0
VERTEX
  5
62E
  8
LAYER_1
 10
18.60847046280711
 20
-16.54674609242392
 30
0.0
  0
VERTEX
  5
62F
  8
LAYER_1
 10
18.36144673072468
 20
-17.00964259134994
 30
0.0
  0
VERTEX
  5
630
  8
LAYER_1
 10
18.01070523506208
 20
-17.66249772161245
 30
0.0
  0
VERTEX
  5
631
  8
LAYER_1
 10
17.91925132687127
 20
-17.83241960336454
 30
0.0
  0
VERTEX
  5
632
  8
LAYER_1
 10
17.8558788249271
 20
-17.92499773204327
 30
0.0
  0
VERTEX
  5
633
  8
LAYER_1
 10
17.78603924087566
 20
-18.02859148615971
 30
0.0
  0
VERTEX
  5
634
  8
LAYER_1
 10
17.679036816129
 20
-18.2249977439642
 30
0.0
  0
VERTEX
  5
635
  8
LAYER_1
 10
17.37168029463957
 20
-18.79970863955091
 30
0.0
  0
VERTEX
  5
636
  8
LAYER_1
 10
17.23878199912123
 20
-19.03086768368589
 30
0.0
  0
VERTEX
  5
637
  8
LAYER_1
 10
17.15446489214622
 20
-19.1624977812171
 30
0.0
  0
VERTEX
  5
638
  8
LAYER_1
 10
17.09642612009691
 20
-19.23749778419733
 30
0.0
  0
VERTEX
  5
639
  8
LAYER_1
 10
16.53146090269857
 20
-20.1303396594823
 30
0.0
  0
VERTEX
  5
63A
  8
LAYER_1
 10
16.26161592328889
 20
-20.54267590130723
 30
0.0
  0
VERTEX
  5
63B
  8
LAYER_1
 10
15.94453024216353
 20
-21.00535570317253
 30
0.0
  0
VERTEX
  5
63C
  8
LAYER_1
 10
15.61973328844762
 20
-21.46177750032905
 30
0.0
  0
VERTEX
  5
63D
  8
LAYER_1
 10
15.32675449126627
 20
-21.85533972802764
 30
0.0
  0
VERTEX
  5
63E
  8
LAYER_1
 10
14.68701329723228
 20
-22.68749792128801
 30
0.0
  0
VERTEX
  5
63F
  8
LAYER_1
 10
14.82784474260211
 20
-22.70941161568975
 30
0.0
  0
VERTEX
  5
640
  8
LAYER_1
 10
14.88620997227738
 20
-22.71423727231641
 30
0.0
  0
VERTEX
  5
641
  8
LAYER_1
 10
14.94101799575039
 20
-22.71117711750514
 30
0.0
  0
VERTEX
  5
642
  8
LAYER_1
 10
14.9861162283371
 20
-22.70104366104121
 30
0.0
  0
SEQEND
  5
D85
  8
LAYER_1
  0
POLYLINE
  5
75
  8
LAYER_1
 66
     1
 10
0.0
 20
0.0
 30
0.0
 70
     1
  0
VERTEX
  5
643
  8
LAYER_1
 10
-62.84999951720238
 20
-14.16110835011123
 30
0.0
  0
VERTEX
  5
644
  8
LAYER_1
 10
-62.4374995008111
 20
-14.23029162517985
 30
0.0
  0
VERTEX
  5
645
  8
LAYER_1
 10
-3.262497149407864
 20
-14.24979252327533
 30
0.0
  0
VERTEX
  5
646
  8
LAYER_1
 10
-2.662497125566006
 20
-14.14044401921334
 30
0.0
  0
VERTEX
  5
647
  8
LAYER_1
 10
-2.348023244429334
 20
-14.07870861791545
 30
0.0
  0
VERTEX
  5
648
  8
LAYER_1
 10
-2.037955941014516
 20
-14.00892968866171
 30
0.0
  0
VERTEX
  5
649
  8
LAYER_1
 10
-1.732295393429622
 20
-13.93110730870267
 30
0.0
  0
VERTEX
  5
64A
  8
LAYER_1
 10
-1.431041779782719
 20
-13.84524155528889
 30
0.0
  0
VERTEX
  5
64B
  8
LAYER_1
 10
-1.134195278181875
 20
-13.75133250567093
 30
0.0
  0
VERTEX
  5
64C
  8
LAYER_1
 10
-0.8417560667351578
 20
-13.64938023709934
 30
0.0
  0
VERTEX
  5
64D
  8
LAYER_1
 10
-0.5537243235506357
 20
-13.53938482682467
 30
0.0
  0
VERTEX
  5
64E
  8
LAYER_1
 10
-0.2701002267363766
 20
-13.42134635209747
 30
0.0
  0
VERTEX
  5
64F
  8
LAYER_1
 10
0.0091160455995517
 20
-13.2952648901683
 30
0.0
  0
VERTEX
  5
650
  8
LAYER_1
 10
0.283924315349081
 20
-13.16114051828772
 30
0.0
  0
VERTEX
  5
651
  8
LAYER_1
 10
0.5543244044041434
 20
-13.01897331370627
 30
0.0
  0
VERTEX
  5
652
  8
LAYER_1
 10
0.820316134656671
 20
-12.86876335367452
 30
0.0
  0
VERTEX
  5
653
  8
LAYER_1
 10
1.081899327998596
 20
-12.71051071544301
 30
0.0
  0
VERTEX
  5
654
  8
LAYER_1
 10
1.339073806321849
 20
-12.5442154762623
 30
0.0
  0
VERTEX
  5
655
  8
LAYER_1
 10
1.591839391518364
 20
-12.36987771338295
 30
0.0
  0
VERTEX
  5
656
  8
LAYER_1
 10
1.840195905480073
 20
-12.1874975040555
 30
0.0
  0
VERTEX
  5
657
  8
LAYER_1
 10
2.137319113510188
 20
-11.9624974951148
 30
0.0
  0
VERTEX
  5
658
  8
LAYER_1
 10
2.856064217002299
 20
-11.24407026204281
 30
0.0
  0
VERTEX
  5
659
  8
LAYER_1
 10
3.106895487925533
 20
-10.9851421733711
 30
0.0
  0
VERTEX
  5
65A
  8
LAYER_1
 10
3.345446921546108
 20
-10.72193736200448
 30
0.0
  0
VERTEX
  5
65B
  8
LAYER_1
 10
3.571962532861108
 20
-10.45400847642812
 30
0.0
  0
VERTEX
  5
65C
  8
LAYER_1
 10
3.786686336867615
 20
-10.18090816512719
 30
0.0
  0
VERTEX
  5
65D
  8
LAYER_1
 10
3.989862348562714
 20
-9.902189076586827
 30
0.0
  0
VERTEX
  5
65E
  8
LAYER_1
 10
4.181734582943489
 20
-9.61740385929221
 30
0.0
  0
VERTEX
  5
65F
  8
LAYER_1
 10
4.362547055007022
 20
-9.3261051617285
 30
0.0
  0
VERTEX
  5
660
  8
LAYER_1
 10
4.5325437797504
 20
-9.027845632380854
 30
0.0
  0
VERTEX
  5
661
  8
LAYER_1
 10
4.691968772170704
 20
-8.722177919734435
 30
0.0
  0
VERTEX
  5
662
  8
LAYER_1
 10
4.841066047265016
 20
-8.408654672274402
 30
0.0
  0
VERTEX
  5
663
  8
LAYER_1
 10
4.980079620030423
 20
-8.08682853848592
 30
0.0
  0
VERTEX
  5
664
  8
LAYER_1
 10
5.109253505464009
 20
-7.756252166854146
 30
0.0
  0
VERTEX
  5
665
  8
LAYER_1
 10
5.228831718562856
 20
-7.416478205864246
 30
0.0
  0
VERTEX
  5
666
  8
LAYER_1
 10
5.339058274324048
 20
-7.067059304001377
 30
0.0
  0
VERTEX
  5
667
  8
LAYER_1
 10
5.440177187744668
 20
-6.707548109750704
 30
0.0
  0
VERTEX
  5
668
  8
LAYER_1
 10
5.5324324738218
 20
-6.337497271597385
 30
0.0
  0
VERTEX
  5
669
  8
LAYER_1
 10
5.634156190656293
 20
-5.859755422533238
 30
0.0
  0
VERTEX
  5
66A
  8
LAYER_1
 10
5.66789823502269
 20
-5.646687205832503
 30
0.0
  0
VERTEX
  5
66B
  8
LAYER_1
 10
5.692118832405436
 20
-5.429508260553279
 30
0.0
  0
VERTEX
  5
66C
  8
LAYER_1
 10
5.708236804592214
 20
-5.192234186346028
 30
0.0
  0
VERTEX
  5
66D
  8
LAYER_1
 10
5.717670973370712
 20
-4.918880582861217
 30
0.0
  0
VERTEX
  5
66E
  8
LAYER_1
 10
5.72216318785361
 20
-4.199997186660767
 30
0.0
  0
VERTEX
  5
66F
  8
LAYER_1
 10
5.718745275472699
 20
-2.887497134506702
 30
0.0
  0
VERTEX
  5
670
  8
LAYER_1
 10
5.595300522415513
 20
-2.331362730553039
 30
0.0
  0
VERTEX
  5
671
  8
LAYER_1
 10
5.467161066654592
 20
-1.811918177739076
 30
0.0
  0
VERTEX
  5
672
  8
LAYER_1
 10
5.315575837694109
 20
-1.302041475548524
 30
0.0
  0
VERTEX
  5
673
  8
LAYER_1
 10
5.140877299547029
 20
-0.8025012419610106
 30
0.0
  0
VERTEX
  5
674
  8
LAYER_1
 10
4.943397916226319
 20
-0.314066094956166
 30
0.0
  0
VERTEX
  5
675
  8
LAYER_1
 10
4.723470151744944
 20
0.1624953474863805
 30
0.0
  0
VERTEX
  5
676
  8
LAYER_1
 10
4.481426470115872
 20
0.6264144673869996
 30
0.0
  0
VERTEX
  5
677
  8
LAYER_1
 10
4.21759933535207
 20
1.076922646766062
 30
0.0
  0
VERTEX
  5
678
  8
LAYER_1
 10
3.932321211466501
 20
1.513251267643938
 30
0.0
  0
VERTEX
  5
679
  8
LAYER_1
 10
3.45000898260669
 20
2.21250306814909
 30
0.0
  0
VERTEX
  5
67A
  8
LAYER_1
 10
3.450003117322922
 20
2.548246711178535
 30
0.0
  0
VERTEX
  5
67B
  8
LAYER_1
 10
3.72206963647487
 20
3.205374922446367
 30
0.0
  0
VERTEX
  5
67C
  8
LAYER_1
 10
3.928241586646142
 20
3.726056981094214
 30
0.0
  0
VERTEX
  5
67D
  8
LAYER_1
 10
4.007974699922206
 20
3.950747601720517
 30
0.0
  0
VERTEX
  5
67E
  8
LAYER_1
 10
4.075667228455933
 20
4.163500459595646
 30
0.0
  0
VERTEX
  5
67F
  8
LAYER_1
 10
4.133965164595351
 20
4.373187437005029
 30
0.0
  0
VERTEX
  5
680
  8
LAYER_1
 10
4.185514500688495
 20
4.588680416234098
 30
0.0
  0
VERTEX
  5
681
  8
LAYER_1
 10
4.278951342128082
 20
5.072571909293004
 30
0.0
  0
VERTEX
  5
682
  8
LAYER_1
 10
4.317860891448257
 20
5.384894982769309
 30
0.0
  0
VERTEX
  5
683
  8
LAYER_1
 10
4.338533418673931
 20
5.748482225555481
 30
0.0
  0
VERTEX
  5
684
  8
LAYER_1
 10
4.341823229220743
 20
6.146475603059155
 30
0.0
  0
VERTEX
  5
685
  8
LAYER_1
 10
4.328584628504339
 20
6.562017080687962
 30
0.0
  0
VERTEX
  5
686
  8
LAYER_1
 10
4.299671921940359
 20
6.978248623849538
 30
0.0
  0
VERTEX
  5
687
  8
LAYER_1
 10
4.255939414944444
 20
7.378312197951514
 30
0.0
  0
VERTEX
  5
688
  8
LAYER_1
 10
4.198241412932237
 20
7.745349768401525
 30
0.0
  0
VERTEX
  5
689
  8
LAYER_1
 10
4.127432221319381
 20
8.062503300607204
 30
0.0
  0
VERTEX
  5
68A
  8
LAYER_1
 10
4.059175107788157
 20
8.296723167070903
 30
0.0
  0
VERTEX
  5
68B
  8
LAYER_1
 10
3.979954788497
 20
8.533342714483318
 30
0.0
  0
VERTEX
  5
68C
  8
LAYER_1
 10
3.89033889717846
 20
8.771410547008236
 30
0.0
  0
VERTEX
  5
68D
  8
LAYER_1
 10
3.790895067565085
 20
9.009975268809448
 30
0.0
  0
VERTEX
  5
68E
  8
LAYER_1
 10
3.682190933389422
 20
9.248085484050748
 30
0.0
  0
VERTEX
  5
68F
  8
LAYER_1
 10
3.564794128384021
 20
9.484789796895923
 30
0.0
  0
VERTEX
  5
690
  8
LAYER_1
 10
3.43927228628143
 20
9.719136811508765
 30
0.0
  0
VERTEX
  5
691
  8
LAYER_1
 10
3.306193040814197
 20
9.950175132053063
 30
0.0
  0
VERTEX
  5
692
  8
LAYER_1
 10
3.16612402571487
 20
10.17695336269261
 30
0.0
  0
VERTEX
  5
693
  8
LAYER_1
 10
3.019632874715999
 20
10.39852010759119
 30
0.0
  0
VERTEX
  5
694
  8
LAYER_1
 10
2.867287221550131
 20
10.61392397091261
 30
0.0
  0
VERTEX
  5
695
  8
LAYER_1
 10
2.709654699949815
 20
10.82221355682064
 30
0.0
  0
VERTEX
  5
696
  8
LAYER_1
 10
2.547302943647598
 20
11.02243746947907
 30
0.0
  0
VERTEX
  5
697
  8
LAYER_1
 10
2.380799586376031
 20
11.21364431305171
 30
0.0
  0
VERTEX
  5
698
  8
LAYER_1
 10
2.21071226186766
 20
11.39488269170234
 30
0.0
  0
VERTEX
  5
699
  8
LAYER_1
 10
2.037608603855034
 20
11.56520120959475
 30
0.0
  0
VERTEX
  5
69A
  8
LAYER_1
 10
1.807367282788026
 20
11.77778891333113
 30
0.0
  0
VERTEX
  5
69B
  8
LAYER_1
 10
1.594826647823014
 20
11.96293586574054
 30
0.0
  0
VERTEX
  5
69C
  8
LAYER_1
 10
1.390883125914018
 20
12.12694656147999
 30
0.0
  0
VERTEX
  5
69D
  8
LAYER_1
 10
1.186433144015057
 20
12.27612549520649
 30
0.0
  0
VERTEX
  5
69E
  8
LAYER_1
 10
0.9723731290801515
 20
12.41677716157704
 30
0.0
  0
VERTEX
  5
69F
  8
LAYER_1
 10
0.739599508063322
 20
12.55520605524866
 30
0.0
  0
VERTEX
  5
6A0
  8
LAYER_1
 10
0.4790087079185883
 20
12.69771667087835
 30
0.0
  0
VERTEX
  5
6A1
  8
LAYER_1
 10
0.1814971555999705
 20
12.85061350312313
 30
0.0
  0
VERTEX
  5
6A2
  8
LAYER_1
 10
-0.0465405796703221
 20
12.96027271934213
 30
0.0
  0
VERTEX
  5
6A3
  8
LAYER_1
 10
-0.2761095750271045
 20
13.06092100316524
 30
0.0
  0
VERTEX
  5
6A4
  8
LAYER_1
 10
-0.507561958466112
 20
13.15262021344797
 30
0.0
  0
VERTEX
  5
6A5
  8
LAYER_1
 10
-0.7412498579830797
 20
13.23543220904581
 30
0.0
  0
VERTEX
  5
6A6
  8
LAYER_1
 10
-0.977525401573743
 20
13.30941884881428
 30
0.0
  0
VERTEX
  5
6A7
  8
LAYER_1
 10
-1.216740717233837
 20
13.37464199160888
 30
0.0
  0
VERTEX
  5
6A8
  8
LAYER_1
 10
-1.459247932959097
 20
13.43116349628511
 30
0.0
  0
VERTEX
  5
6A9
  8
LAYER_1
 10
-1.705399176745258
 20
13.47904522169848
 30
0.0
  0
VERTEX
  5
6AA
  8
LAYER_1
 10
-1.955546576588056
 20
13.51834902670449
 30
0.0
  0
VERTEX
  5
6AB
  8
LAYER_1
 10
-2.210042260483225
 20
13.54913677015865
 30
0.0
  0
VERTEX
  5
6AC
  8
LAYER_1
 10
-2.469238356426501
 20
13.57147031091647
 30
0.0
  0
VERTEX
  5
6AD
  8
LAYER_1
 10
-2.73348699241362
 20
13.58541150783345
 30
0.0
  0
VERTEX
  5
6AE
  8
LAYER_1
 10
-3.003140296440316
 20
13.59102221976509
 30
0.0
  0
VERTEX
  5
6AF
  8
LAYER_1
 10
-3.278550396502324
 20
13.5883643055669
 30
0.0
  0
VERTEX
  5
6B0
  8
LAYER_1
 10
-3.56006942059538
 20
13.57749962409439
 30
0.0
  0
VERTEX
  5
6B1
  8
LAYER_1
 10
-3.84804949671522
 20
13.55849003420306
 30
0.0
  0
VERTEX
  5
6B2
  8
LAYER_1
 10
-4.733601855943519
 20
13.48839000814867
 30
0.0
  0
VERTEX
  5
6B3
  8
LAYER_1
 10
-4.905294051848045
 20
13.60088705559853
 30
0.0
  0
VERTEX
  5
6B4
  8
LAYER_1
 10
-4.979278382362694
 20
13.66425937153638
 30
0.0
  0
VERTEX
  5
6B5
  8
LAYER_1
 10
-5.053800385479608
 20
13.75364626339462
 30
0.0
  0
VERTEX
  5
6B6
  8
LAYER_1
 10
-5.120182670990062
 20
13.85716774345952
 30
0.0
  0
VERTEX
  5
6B7
  8
LAYER_1
 10
-5.169747848685333
 20
13.96294382401733
 30
0.0
  0
VERTEX
  5
6B8
  8
LAYER_1
 10
-5.255454247725794
 20
14.17745112736743
 30
0.0
  0
VERTEX
  5
6B9
  8
LAYER_1
 10
-5.331253341981309
 20
14.34273588682728
 30
0.0
  0
VERTEX
  5
6BA
  8
LAYER_1
 10
-5.379803715962797
 20
14.45694954558778
 30
0.0
  0
VERTEX
  5
6BB
  8
LAYER_1
 10
-5.399997234344482
 20
14.54866888342673
 30
0.0
  0
VERTEX
  5
6BC
  8
LAYER_1
 10
-5.399997234344482
 20
14.62436953818518
 30
0.0
  0
VERTEX
  5
6BD
  8
LAYER_1
 10
-5.654966936250162
 20
15.17636120256492
 30
0.0
  0
VERTEX
  5
6BE
  8
LAYER_1
 10
-5.899205175106214
 20
15.67152856774016
 30
0.0
  0
VERTEX
  5
6BF
  8
LAYER_1
 10
-6.164857835377252
 20
16.14579843261874
 30
0.0
  0
VERTEX
  5
6C0
  8
LAYER_1
 10
-6.452059078264476
 20
16.59934818295387
 30
0.0
  0
VERTEX
  5
6C1
  8
LAYER_1
 10
-6.760943064969089
 20
17.03235520449875
 30
0.0
  0
VERTEX
  5
6C2
  8
LAYER_1
 10
-7.091643956692294
 20
17.44499688300658
 30
0.0
  0
VERTEX
  5
6C3
  8
LAYER_1
 10
-7.444295914635291
 20
17.83745060423055
 30
0.0
  0
VERTEX
  5
6C4
  8
LAYER_1
 10
-7.819033099999285
 20
18.20989375392386
 30
0.0
  0
VERTEX
  5
6C5
  8
LAYER_1
 10
-8.215989673985476
 20
18.56250371783972
 30
0.0
  0
VERTEX
  5
6C6
  8
LAYER_1
 10
-8.699997365474701
 20
18.97664465181902
 30
0.0
  0
VERTEX
  5
6C7
  8
LAYER_1
 10
-8.765885312611328
 20
19.03582964475765
 30
0.0
  0
VERTEX
  5
6C8
  8
LAYER_1
 10
-8.860602976913285
 20
19.10706563641374
 30
0.0
  0
VERTEX
  5
6C9
  8
LAYER_1
 10
-9.123304077668692
 20
19.27867993997317
 30
0.0
  0
VERTEX
  5
6CA
  8
LAYER_1
 10
-9.461653909051972
 20
19.47746621068715
 30
0.0
  0
VERTEX
  5
6CB
  8
LAYER_1
 10
-9.849205712374163
 20
19.68940309674557
 30
0.0
  0
VERTEX
  5
6CC
  8
LAYER_1
 10
-10.25951272894631
 20
19.90046924633828
 30
0.0
  0
VERTEX
  5
6CD
  8
LAYER_1
 10
-10.66612820007946
 20
20.09664330765513
 30
0.0
  0
VERTEX
  5
6CE
  8
LAYER_1
 10
-11.04260536708466
 20
20.26390392888599
 30
0.0
  0
VERTEX
  5
6CF
  8
LAYER_1
 10
-11.36249747127295
 20
20.38822975822072
 30
0.0
  0
VERTEX
  5
6D0
  8
LAYER_1
 10
-11.60456762250977
 20
20.46766599939876
 30
0.0
  0
VERTEX
  5
6D1
  8
LAYER_1
 10
-11.85504044991687
 20
20.5409875608243
 30
0.0
  0
VERTEX
  5
6D2
  8
LAYER_1
 10
-12.11269909029187
 20
20.6080605228568
 30
0.0
  0
VERTEX
  5
6D3
  8
LAYER_1
 10
-12.3763266804324
 20
20.66875096585568
 30
0.0
  0
VERTEX
  5
6D4
  8
LAYER_1
 10
-12.91662125720057
 20
20.77044861619039
 30
0.0
  0
VERTEX
  5
6D5
  8
LAYER_1
 10
-13.46618927460236
 20
20.84500915470401
 30
0.0
  0
VERTEX
  5
6D6
  8
LAYER_1
 10
-14.01529582701879
 20
20.89136122427208
 30
0.0
  0
VERTEX
  5
6D7
  8
LAYER_1
 10
-14.55420600883086
 20
20.90843346777016
 30
0.0
  0
VERTEX
  5
6D8
  8
LAYER_1
 10
-14.81679530275432
 20
20.90565485564156
 30
0.0
  0
VERTEX
  5
6D9
  8
LAYER_1
 10
-15.07318491441957
 20
20.8951545280738
 30
0.0
  0
VERTEX
  5
6DA
  8
LAYER_1
 10
-15.32215798062424
 20
20.87679856542631
 30
0.0
  0
VERTEX
  5
6DB
  8
LAYER_1
 10
-15.56249763816595
 20
20.85045304805855
 30
0.0
  0
VERTEX
  5
6DC
  8
LAYER_1
 10
-16.3370208920164
 20
20.75354489854768
 30
0.0
  0
VERTEX
  5
6DD
  8
LAYER_1
 10
-16.77469128873521
 20
20.71297214260305
 30
0.0
  0
VERTEX
  5
6DE
  8
LAYER_1
 10
-16.90650232755069
 20
20.71200104165243
 30
0.0
  0
VERTEX
  5
6DF
  8
LAYER_1
 10
-17.00125494633978
 20
20.7229411944146
 30
0.0
  0
VERTEX
  5
6E0
  8
LAYER_1
 10
-17.07466740985468
 20
20.74506840266329
 30
0.0
  0
VERTEX
  5
6E1
  8
LAYER_1
 10
-17.14245798284755
 20
20.77765846817226
 30
0.0
  0
VERTEX
  5
6E2
  8
LAYER_1
 10
-17.21333473558261
 20
20.82346749195563
 30
0.0
  0
VERTEX
  5
6E3
  8
LAYER_1
 10
-17.27137666387872
 20
20.87597769461707
 30
0.0
  0
VERTEX
  5
6E4
  8
LAYER_1
 10
-17.31059418299771
 20
20.92870798978029
 30
0.0
  0
VERTEX
  5
6E5
  8
LAYER_1
 10
-17.32499770820141
 20
20.975177291069
 30
0.0
  0
VERTEX
  5
6E6
  8
LAYER_1
 10
-17.32996575427473
 20
21.01393805960371
 30
0.0
  0
VERTEX
  5
6E7
  8
LAYER_1
 10
-17.34349261239517
 20
21.04567977548625
 30
0.0
  0
VERTEX
  5
6E8
  8
LAYER_1
 10
-17.36351236241341
 20
21.0671268808123
 30
0.0
  0
VERTEX
  5
6E9
  8
LAYER_1
 10
-17.38795908418016
 20
21.0750038176775
 30
0.0
  0
VERTEX
  5
6EA
  8
LAYER_1
 10
-17.41954215514217
 20
21.09066639804873
 30
0.0
  0
VERTEX
  5
6EB
  8
LAYER_1
 10
-17.45899255890989
 20
21.13331203767336
 30
0.0
  0
VERTEX
  5
6EC
  8
LAYER_1
 10
-17.50127678457954
 20
21.19642758431782
 30
0.0
  0
VERTEX
  5
6ED
  8
LAYER_1
 10
-17.54136132124736
 20
21.27349988574852
 30
0.0
  0
VERTEX
  5
6EE
  8
LAYER_1
 10
-17.64914628710915
 20
21.4710435809239
 30
0.0
  0
VERTEX
  5
6EF
  8
LAYER_1
 10
-17.78128680435481
 20
21.66724990139474
 30
0.0
  0
VERTEX
  5
6F0
  8
LAYER_1
 10
-17.93077142637383
 20
21.86250384896994
 30
0.0
  0
VERTEX
  5
6F1
  8
LAYER_1
 10
-18.92999414352525
 20
23.13750389963388
 30
0.0
  0
VERTEX
  5
6F2
  8
LAYER_1
 10
-20.81249784678221
 20
25.03221373427867
 30
0.0
  0
VERTEX
  5
6F3
  8
LAYER_1
 10
-21.22499786317348
 20
25.34613740443638
 30
0.0
  0
VERTEX
  5
6F4
  8
LAYER_1
 10
-21.82922942168521
 20
25.80254464000884
 30
0.0
  0
VERTEX
  5
6F5
  8
LAYER_1
 10
-22.30051137161164
 20
26.14949019332867
 30
0.0
  0
VERTEX
  5
6F6
  8
LAYER_1
 10
-22.69341158557292
 20
26.4263645133163
 30
0.0
  0
VERTEX
  5
6F7
  8
LAYER_1
 10
-23.06249793618917
 20
26.67255804889213
 30
0.0
  0
VERTEX
  5
6F8
  8
LAYER_1
 10
-23.5874979570508
 20
27.01379915548989
 30
0.0
  0
VERTEX
  5
6F9
  8
LAYER_1
 10
-24.63749799877405
 20
27.5246954651913
 30
0.0
  0
VERTEX
  5
6FA
  8
LAYER_1
 10
-25.33351585362249
 20
27.85087125749332
 30
0.0
  0
VERTEX
  5
6FB
  8
LAYER_1
 10
-26.01003158001513
 20
28.1420779307788
 30
0.0
  0
VERTEX
  5
6FC
  8
LAYER_1
 10
-26.67178476666771
 20
28.39985405254872
 30
0.0
  0
VERTEX
  5
6FD
  8
LAYER_1
 10
-27.32351500229597
 20
28.62573819030405
 30
0.0
  0
VERTEX
  5
6FE
  8
LAYER_1
 10
-27.96996187561564
 20
28.82126891154578
 30
0.0
  0
VERTEX
  5
6FF
  8
LAYER_1
 10
-28.61586497534244
 20
28.98798478377489
 30
0.0
  0
VERTEX
  5
700
  8
LAYER_1
 10
-29.26596389019213
 20
29.12742437449236
 30
0.0
  0
VERTEX
  5
701
  8
LAYER_1
 10
-29.92499820888042
 20
29.24112625119918
 30
0.0
  0
VERTEX
  5
702
  8
LAYER_1
 10
-30.41887613257957
 20
29.30994061009669
 30
0.0
  0
VERTEX
  5
703
  8
LAYER_1
 10
-30.91241993463529
 20
29.36585656297511
 30
0.0
  0
VERTEX
  5
704
  8
LAYER_1
 10
-31.40534953979856
 20
29.40889002594932
 30
0.0
  0
VERTEX
  5
705
  8
LAYER_1
 10
-31.89738487282034
 20
29.43905691513418
 30
0.0
  0
VERTEX
  5
706
  8
LAYER_1
 10
-32.38824585845161
 20
29.45637314664459
 30
0.0
  0
VERTEX
  5
707
  8
LAYER_1
 10
-32.87765242144333
 20
29.46085463659539
 30
0.0
  0
VERTEX
  5
708
  8
LAYER_1
 10
-33.36532448654646
 20
29.45251730110148
 30
0.0
  0
VERTEX
  5
709
  8
LAYER_1
 10
-33.85098197851199
 20
29.43137705627773
 30
0.0
  0
VERTEX
  5
70A
  8
LAYER_1
 10
-34.33434482209087
 20
29.39744981823901
 30
0.0
  0
VERTEX
  5
70B
  8
LAYER_1
 10
-34.81513294203407
 20
29.3507515031002
 30
0.0
  0
VERTEX
  5
70C
  8
LAYER_1
 10
-35.29306626309256
 20
29.29129802697617
 30
0.0
  0
VERTEX
  5
70D
  8
LAYER_1
 10
-35.76786471001731
 20
29.21910530598179
 30
0.0
  0
VERTEX
  5
70E
  8
LAYER_1
 10
-36.23924820755929
 20
29.13418925623195
 30
0.0
  0
VERTEX
  5
70F
  8
LAYER_1
 10
-36.70693668046945
 20
29.0365657938415
 30
0.0
  0
VERTEX
  5
710
  8
LAYER_1
 10
-37.17065005349879
 20
28.92625083492534
 30
0.0
  0
VERTEX
  5
711
  8
LAYER_1
 10
-37.63010825139825
 20
28.80326029559834
 30
0.0
  0
VERTEX
  5
712
  8
LAYER_1
 10
-38.11483194287085
 20
28.66158496119354
 30
0.0
  0
VERTEX
  5
713
  8
LAYER_1
 10
-38.56267102689169
 20
28.52021556421257
 30
0.0
  0
VERTEX
  5
714
  8
LAYER_1
 10
-38.98655513333108
 20
28.37404011387987
 30
0.0
  0
VERTEX
  5
715
  8
LAYER_1
 10
-39.39941389205935
 20
28.21794661941986
 30
0.0
  0
VERTEX
  5
716
  8
LAYER_1
 10
-39.81417693294681
 20
28.04682309005696
 30
0.0
  0
VERTEX
  5
717
  8
LAYER_1
 10
-40.24377388586379
 20
27.8555575350156
 30
0.0
  0
VERTEX
  5
718
  8
LAYER_1
 10
-40.70113438068061
 20
27.63903796352022
 30
0.0
  0
VERTEX
  5
719
  8
LAYER_1
 10
-41.1991880472676
 20
27.39215238479524
 30
0.0
  0
VERTEX
  5
71A
  8
LAYER_1
 10
-42.31087748183329
 20
26.83116614562589
 30
0.0
  0
VERTEX
  5
71B
  8
LAYER_1
 10
-42.51168809942166
 20
26.66995148799933
 30
0.0
  0
VERTEX
  5
71C
  8
LAYER_1
 10
-42.71253376750541
 20
26.52622141571698
 30
0.0
  0
VERTEX
  5
71D
  8
LAYER_1
 10
-42.91342865543378
 20
26.40704416540734
 30
0.0
  0
VERTEX
  5
71E
  8
LAYER_1
 10
-43.04804600398285
 20
26.32825935637702
 30
0.0
  0
VERTEX
  5
71F
  8
LAYER_1
 10
-43.23143723798793
 20
26.20527136071941
 30
0.0
  0
VERTEX
  5
720
  8
LAYER_1
 10
-43.70303868824978
 20
25.85842470005058
 30
0.0
  0
VERTEX
  5
721
  8
LAYER_1
 10
-44.24522765798679
 20
25.42998196445721
 30
0.0
  0
VERTEX
  5
722
  8
LAYER_1
 10
-44.77499879896641
 20
24.98342093499569
 30
0.0
  0
VERTEX
  5
723
  8
LAYER_1
 10
-45.23037098952042
 20
24.5698628180228
 30
0.0
  0
VERTEX
  5
724
  8
LAYER_1
 10
-45.6838353720759
 20
24.12992294896978
 30
0.0
  0
VERTEX
  5
725
  8
LAYER_1
 10
-46.12856228908422
 20
23.67130162656191
 30
0.0
  0
VERTEX
  5
726
  8
LAYER_1
 10
-46.55772208299678
 20
23.20169914952447
 30
0.0
  0
VERTEX
  5
727
  8
LAYER_1
 10
-46.96448509626499
 20
22.72881581658277
 30
0.0
  0
VERTEX
  5
728
  8
LAYER_1
 10
-47.34202167134024
 20
22.26035192646209
 30
0.0
  0
VERTEX
  5
729
  8
LAYER_1
 10
-47.68350215067393
 20
21.80400777788771
 30
0.0
  0
VERTEX
  5
72A
  8
LAYER_1
 10
-47.98209687671744
 20
21.36748366958494
 30
0.0
  0
VERTEX
  5
72B
  8
LAYER_1
 10
-48.11511071289508
 20
21.17068015153917
 30
0.0
  0
VERTEX
  5
72C
  8
LAYER_1
 10
-48.23510228501436
 20
21.01400596991464
 30
0.0
  0
VERTEX
  5
72D
  8
LAYER_1
 10
-48.34749718948217
 20
20.89396442740212
 30
0.0
  0
VERTEX
  5
72E
  8
LAYER_1
 10
-48.45772102270541
 20
20.80705882669232
 30
0.0
  0
VERTEX
  5
72F
  8
LAYER_1
 10
-48.57119938109101
 20
20.74979247047599
 30
0.0
  0
VERTEX
  5
730
  8
LAYER_1
 10
-48.69335786104585
 20
20.71866866144386
 30
0.0
  0
VERTEX
  5
731
  8
LAYER_1
 10
-48.82962205897687
 20
20.71019070228667
 30
0.0
  0
VERTEX
  5
732
  8
LAYER_1
 10
-48.98541757129092
 20
20.72086189569515
 30
0.0
  0
VERTEX
  5
733
  8
LAYER_1
 10
-50.06249900907278
 20
20.84838412297889
 30
0.0
  0
VERTEX
  5
734
  8
LAYER_1
 10
-50.32145061226024
 20
20.87495732835721
 30
0.0
  0
VERTEX
  5
735
  8
LAYER_1
 10
-50.58613245005148
 20
20.89320339978549
 30
0.0
  0
VERTEX
  5
736
  8
LAYER_1
 10
-50.85561889096063
 20
20.90323233665035
 30
0.0
  0
VERTEX
  5
737
  8
LAYER_1
 10
-51.12898430350181
 20
20.90515413833844
 30
0.0
  0
VERTEX
  5
738
  8
LAYER_1
 10
-51.40530305618915
 20
20.89907880423637
 30
0.0
  0
VERTEX
  5
739
  8
LAYER_1
 10
-51.68364951753677
 20
20.88511633373078
 30
0.0
  0
VERTEX
  5
73A
  8
LAYER_1
 10
-51.9630980560588
 20
20.8633767262083
 30
0.0
  0
VERTEX
  5
73B
  8
LAYER_1
 10
-52.24272304026937
 20
20.83396998105557
 30
0.0
  0
VERTEX
  5
73C
  8
LAYER_1
 10
-52.52159883868259
 20
20.79700609765922
 30
0.0
  0
VERTEX
  5
73D
  8
LAYER_1
 10
-52.79879981981261
 20
20.75259507540588
 30
0.0
  0
VERTEX
  5
73E
  8
LAYER_1
 10
-53.07340035217353
 20
20.70084691368218
 30
0.0
  0
VERTEX
  5
73F
  8
LAYER_1
 10
-53.34447480427948
 20
20.64187161187476
 30
0.0
  0
VERTEX
  5
740
  8
LAYER_1
 10
-53.61109754464459
 20
20.57577916937025
 30
0.0
  0
VERTEX
  5
741
  8
LAYER_1
 10
-53.87234294178299
 20
20.50267958555528
 30
0.0
  0
VERTEX
  5
742
  8
LAYER_1
 10
-54.12728536420879
 20
20.42268285981648
 30
0.0
  0
VERTEX
  5
743
  8
LAYER_1
 10
-54.37499918043613
 20
20.33589899154049
 30
0.0
  0
VERTEX
  5
744
  8
LAYER_1
 10
-54.72775344821846
 20
20.19402175928714
 30
0.0
  0
VERTEX
  5
745
  8
LAYER_1
 10
-55.09980781492403
 20
20.02337797594378
 30
0.0
  0
VERTEX
  5
746
  8
LAYER_1
 10
-55.48201162343034
 20
19.82924853729769
 30
0.0
  0
VERTEX
  5
747
  8
LAYER_1
 10
-55.86521421661486
 20
19.61691433913614
 30
0.0
  0
VERTEX
  5
748
  8
LAYER_1
 10
-56.24026493735509
 20
19.39165627724642
 30
0.0
  0
VERTEX
  5
749
  8
LAYER_1
 10
-56.59801312852852
 20
19.1587552474158
 30
0.0
  0
VERTEX
  5
74A
  8
LAYER_1
 10
-56.92930813301265
 20
18.92349214543155
 30
0.0
  0
VERTEX
  5
74B
  8
LAYER_1
 10
-57.22499929368496
 20
18.69114786708094
 30
0.0
  0
VERTEX
  5
74C
  8
LAYER_1
 10
-57.45579569378882
 20
18.48926175694942
 30
0.0
  0
VERTEX
  5
74D
  8
LAYER_1
 10
-57.71776390810574
 20
18.24494226588932
 30
0.0
  0
VERTEX
  5
74E
  8
LAYER_1
 10
-58.25884564129083
 20
17.70773364503742
 30
0.0
  0
VERTEX
  5
74F
  8
LAYER_1
 10
-58.499774091115
 20
17.45420976727261
 30
0.0
  0
VERTEX
  5
750
  8
LAYER_1
 10
-58.69550421706427
 20
17.23698301263324
 30
0.0
  0
VERTEX
  5
751
  8
LAYER_1
 10
-58.82694348461662
 20
17.07573600713281
 30
0.0
  0
VERTEX
  5
752
  8
LAYER_1
 10
-58.86258762945583
 20
17.02225573093892
 30
0.0
  0
VERTEX
  5
753
  8
LAYER_1
 10
-58.87499935925007
 20
16.99015137678482
 30
0.0
  0
VERTEX
  5
754
  8
LAYER_1
 10
-58.89596170647562
 20
16.94760457458815
 30
0.0
  0
VERTEX
  5
755
  8
LAYER_1
 10
-58.953037404367
 20
16.86047833294205
 30
0.0
  0
VERTEX
  5
756
  8
LAYER_1
 10
-59.14066078943534
 20
16.60326620950681
 30
0.0
  0
VERTEX
  5
757
  8
LAYER_1
 10
-59.27220448331411
 20
16.40825150411363
 30
0.0
  0
VERTEX
  5
758
  8
LAYER_1
 10
-59.43398239703147
 20
16.13455001521206
 30
0.0
  0
VERTEX
  5
759
  8
LAYER_1
 10
-59.60547079856327
 20
15.81848186707706
 30
0.0
  0
VERTEX
  5
75A
  8
LAYER_1
 10
-59.76614595588539
 20
15.49636718398364
 30
0.0
  0
VERTEX
  5
75B
  8
LAYER_1
 10
-59.98288134215227
 20
15.03302692009666
 30
0.0
  0
VERTEX
  5
75C
  8
LAYER_1
 10
-60.14904201062096
 20
14.65910333618917
 30
0.0
  0
VERTEX
  5
75D
  8
LAYER_1
 10
-60.29587176719411
 20
14.3015809177355
 30
0.0
  0
VERTEX
  5
75E
  8
LAYER_1
 10
-60.45461441777438
 20
13.88744415020997
 30
0.0
  0
VERTEX
  5
75F
  8
LAYER_1
 10
-60.50610584755316
 20
13.78191521443152
 30
0.0
  0
VERTEX
  5
760
  8
LAYER_1
 10
-60.57442716490736
 20
13.68807004364512
 30
0.0
  0
VERTEX
  5
761
  8
LAYER_1
 10
-60.65275631417205
 20
13.6137323618957
 30
0.0
  0
VERTEX
  5
762
  8
LAYER_1
 10
-60.7342712396823
 20
13.5667258932282
 30
0.0
  0
VERTEX
  5
763
  8
LAYER_1
 10
-60.92011813901181
 20
13.49606702804245
 30
0.0
  0
VERTEX
  5
764
  8
LAYER_1
 10
-61.71630882140157
 20
13.56379722613254
 30
0.0
  0
VERTEX
  5
765
  8
LAYER_1
 10
-62.16592917873884
 20
13.59138682958145
 30
0.0
  0
VERTEX
  5
766
  8
LAYER_1
 10
-62.60641839916089
 20
13.59687887380682
 30
0.0
  0
VERTEX
  5
767
  8
LAYER_1
 10
-63.03778842054399
 20
13.58026903195527
 30
0.0
  0
VERTEX
  5
768
  8
LAYER_1
 10
-63.46005118076442
 20
13.54155297717339
 30
0.0
  0
VERTEX
  5
769
  8
LAYER_1
 10
-63.87321861769848
 20
13.48072638260779
 30
0.0
  0
VERTEX
  5
76A
  8
LAYER_1
 10
-64.27730266922244
 20
13.39778492140508
 30
0.0
  0
VERTEX
  5
76B
  8
LAYER_1
 10
-64.67231527321256
 20
13.29272426671187
 30
0.0
  0
VERTEX
  5
76C
  8
LAYER_1
 10
-65.05826836754517
 20
13.16554009167475
 30
0.0
  0
VERTEX
  5
76D
  8
LAYER_1
 10
-65.43517389009651
 20
13.01622806944034
 30
0.0
  0
VERTEX
  5
76E
  8
LAYER_1
 10
-65.8030437787429
 20
12.84478387315525
 30
0.0
  0
VERTEX
  5
76F
  8
LAYER_1
 10
-66.16188997136061
 20
12.65120317596607
 30
0.0
  0
VERTEX
  5
770
  8
LAYER_1
 10
-66.5117244058259
 20
12.43548165101942
 30
0.0
  0
VERTEX
  5
771
  8
LAYER_1
 10
-66.85255902001508
 20
12.19761497146189
 30
0.0
  0
VERTEX
  5
772
  8
LAYER_1
 10
-67.1844057518044
 20
11.9375988104401
 30
0.0
  0
VERTEX
  5
773
  8
LAYER_1
 10
-67.5072765390702
 20
11.65542884110065
 30
0.0
  0
VERTEX
  5
774
  8
LAYER_1
 10
-67.82118331968871
 20
11.35110073659015
 30
0.0
  0
VERTEX
  5
775
  8
LAYER_1
 10
-68.06262121702237
 20
11.09900762218654
 30
0.0
  0
VERTEX
  5
776
  8
LAYER_1
 10
-68.27219812137491
 20
10.86548463779668
 30
0.0
  0
VERTEX
  5
777
  8
LAYER_1
 10
-68.45678775395895
 20
10.64063328142119
 30
0.0
  0
VERTEX
  5
778
  8
LAYER_1
 10
-68.62326383598709
 20
10.41455505106069
 30
0.0
  0
VERTEX
  5
779
  8
LAYER_1
 10
-68.77850008867196
 20
10.17735144471581
 30
0.0
  0
VERTEX
  5
77A
  8
LAYER_1
 10
-68.9293702332262
 20
9.919123960387157
 30
0.0
  0
VERTEX
  5
77B
  8
LAYER_1
 10
-69.08274799086237
 20
9.62997409607536
 30
0.0
  0
VERTEX
  5
77C
  8
LAYER_1
 10
-69.24550708279314
 20
9.300003349781036
 30
0.0
  0
VERTEX
  5
77D
  8
LAYER_1
 10
-69.42024597446982
 20
8.915506356226748
 30
0.0
  0
VERTEX
  5
77E
  8
LAYER_1
 10
-69.56583663626546
 20
8.547932194547958
 30
0.0
  0
VERTEX
  5
77F
  8
LAYER_1
 10
-69.68416689438914
 20
8.188836874275573
 30
0.0
  0
VERTEX
  5
780
  8
LAYER_1
 10
-69.77712457504994
 20
7.829776404940503
 30
0.0
  0
VERTEX
  5
781
  8
LAYER_1
 10
-69.8465975044569
 20
7.462306796073654
 30
0.0
  0
VERTEX
  5
782
  8
LAYER_1
 10
-69.89447350881909
 20
7.077984057205935
 30
0.0
  0
VERTEX
  5
783
  8
LAYER_1
 10
-69.92264041434554
 20
6.668364197868252
 30
0.0
  0
VERTEX
  5
784
  8
LAYER_1
 10
-69.93298604724535
 20
6.225003227591515
 30
0.0
  0
VERTEX
  5
785
  8
LAYER_1
 10
-69.93749979883432
 20
5.212503187358379
 30
0.0
  0
VERTEX
  5
786
  8
LAYER_1
 10
-69.83755268667912
 20
4.800003170967102
 30
0.0
  0
VERTEX
  5
787
  8
LAYER_1
 10
-69.70347204473181
 20
4.295805813269851
 30
0.0
  0
VERTEX
  5
788
  8
LAYER_1
 10
-69.55310648027813
 20
3.815277683390175
 30
0.0
  0
VERTEX
  5
789
  8
LAYER_1
 10
-69.3960381949448
 20
3.386752461917053
 30
0.0
  0
VERTEX
  5
78A
  8
LAYER_1
 10
-69.31798496995663
 20
3.200845217017008
 30
0.0
  0
VERTEX
  5
78B
  8
LAYER_1
 10
-69.24184939035854
 20
3.038563829439468
 30
0.0
  0
VERTEX
  5
78C
  8
LAYER_1
 10
-69.15645235585858
 20
2.850572597561565
 30
0.0
  0
VERTEX
  5
78D
  8
LAYER_1
 10
-69.09733601485155
 20
2.677872902099615
 30
0.0
  0
VERTEX
  5
78E
  8
LAYER_1
 10
-69.06464568096432
 20
2.517497502012699
 30
0.0
  0
VERTEX
  5
78F
  8
LAYER_1
 10
-69.05852666782377
 20
2.366479156259899
 30
0.0
  0
VERTEX
  5
790
  8
LAYER_1
 10
-69.07912428905678
 20
2.221850623800298
 30
0.0
  0
VERTEX
  5
791
  8
LAYER_1
 10
-69.12658385829022
 20
2.080644663592978
 30
0.0
  0
VERTEX
  5
792
  8
LAYER_1
 10
-69.20105068915095
 20
1.93989403459702
 30
0.0
  0
VERTEX
  5
793
  8
LAYER_1
 10
-69.30267009526587
 20
1.796631495771507
 30
0.0
  0
VERTEX
  5
794
  8
LAYER_1
 10
-69.48357208787786
 20
1.559373027489193
 30
0.0
  0
VERTEX
  5
795
  8
LAYER_1
 10
-69.65738771286314
 20
1.313522421045136
 30
0.0
  0
VERTEX
  5
796
  8
LAYER_1
 10
-69.82389479898032
 20
1.059604347525333
 30
0.0
  0
VERTEX
  5
797
  8
LAYER_1
 10
-69.98287117498802
 20
0.7981434780157788
 30
0.0
  0
VERTEX
  5
798
  8
LAYER_1
 10
-70.13409466964488
 20
0.5296644836024702
 30
0.0
  0
VERTEX
  5
799
  8
LAYER_1
 10
-70.27734311170954
 20
0.2546920353714029
 30
0.0
  0
VERTEX
  5
79A
  8
LAYER_1
 10
-70.41239432994061
 20
-0.0262491955914272
 30
0.0
  0
VERTEX
  5
79B
  8
LAYER_1
 10
-70.53902615309676
 20
-0.3126345382000242
 30
0.0
  0
VERTEX
  5
79C
  8
LAYER_1
 10
-70.65701640993659
 20
-0.6039393213683921
 30
0.0
  0
VERTEX
  5
79D
  8
LAYER_1
 10
-70.76614292921873
 20
-0.899638874010535
 30
0.0
  0
VERTEX
  5
79E
  8
LAYER_1
 10
-70.86618353970182
 20
-1.199208525040457
 30
0.0
  0
VERTEX
  5
79F
  8
LAYER_1
 10
-70.9569160701445
 20
-1.502123603372162
 30
0.0
  0
VERTEX
  5
7A0
  8
LAYER_1
 10
-71.03811834930539
 20
-1.807859437919655
 30
0.0
  0
VERTEX
  5
7A1
  8
LAYER_1
 10
-71.10956820594313
 20
-2.115891357596938
 30
0.0
  0
VERTEX
  5
7A2
  8
LAYER_1
 10
-71.17104346881635
 20
-2.425694691318018
 30
0.0
  0
VERTEX
  5
7A3
  8
LAYER_1
 10
-71.22232196668367
 20
-2.736744767996896
 30
0.0
  0
VERTEX
  5
7A4
  8
LAYER_1
 10
-71.27849633434127
 20
-3.18863962477191
 30
0.0
  0
VERTEX
  5
7A5
  8
LAYER_1
 10
-71.3083411995537
 20
-3.634409045294175
 30
0.0
  0
VERTEX
  5
7A6
  8
LAYER_1
 10
-71.31390457981878
 20
-4.128409437049175
 30
0.0
  0
VERTEX
  5
7A7
  8
LAYER_1
 10
-71.29723449263442
 20
-4.724997207522392
 30
0.0
  0
VERTEX
  5
7A8
  8
LAYER_1
 10
-71.24992434043074
 20
-5.887497253715992
 30
0.0
  0
VERTEX
  5
7A9
  8
LAYER_1
 10
-71.1468223343753
 20
-6.299997270107269
 30
0.0
  0
VERTEX
  5
7AA
  8
LAYER_1
 10
-71.03239590463886
 20
-6.727516580718412
 30
0.0
  0
VERTEX
  5
7AB
  8
LAYER_1
 10
-70.90545712786103
 20
-7.144559863933179
 30
0.0
  0
VERTEX
  5
7AC
  8
LAYER_1
 10
-70.76603208300205
 20
-7.551083425162275
 30
0.0
  0
VERTEX
  5
7AD
  8
LAYER_1
 10
-70.61414684902215
 20
-7.947043569816407
 30
0.0
  0
VERTEX
  5
7AE
  8
LAYER_1
 10
-70.4498275048816
 20
-8.332396603306277
 30
0.0
  0
VERTEX
  5
7AF
  8
LAYER_1
 10
-70.27310012954062
 20
-8.707098831042588
 30
0.0
  0
VERTEX
  5
7B0
  8
LAYER_1
 10
-70.08399080195947
 20
-9.071106558436046
 30
0.0
  0
VERTEX
  5
7B1
  8
LAYER_1
 10
-69.8825256010984
 20
-9.424376090897356
 30
0.0
  0
VERTEX
  5
7B2
  8
LAYER_1
 10
-69.66873060591763
 20
-9.766863733837221
 30
0.0
  0
VERTEX
  5
7B3
  8
LAYER_1
 10
-69.44263189537742
 20
-10.09852579266635
 30
0.0
  0
VERTEX
  5
7B4
  8
LAYER_1
 10
-69.20425554843801
 20
-10.41931857279544
 30
0.0
  0
VERTEX
  5
7B5
  8
LAYER_1
 10
-68.95362764405965
 20
-10.72919837963519
 30
0.0
  0
VERTEX
  5
7B6
  8
LAYER_1
 10
-68.69077426120258
 20
-11.02812151859632
 30
0.0
  0
VERTEX
  5
7B7
  8
LAYER_1
 10
-68.41572147882704
 20
-11.31604429508953
 30
0.0
  0
VERTEX
  5
7B8
  8
LAYER_1
 10
-68.12849537589328
 20
-11.59292301452552
 30
0.0
  0
VERTEX
  5
7B9
  8
LAYER_1
 10
-67.82912203136155
 20
-11.858713982315
 30
0.0
  0
VERTEX
  5
7BA
  8
LAYER_1
 10
-67.55972625684367
 20
-12.07417927944663
 30
0.0
  0
VERTEX
  5
7BB
  8
LAYER_1
 10
-67.24267323266528
 20
-12.3045051497863
 30
0.0
  0
VERTEX
  5
7BC
  8
LAYER_1
 10
-66.89288165105614
 20
-12.54054338883349
 30
0.0
  0
VERTEX
  5
7BD
  8
LAYER_1
 10
-66.52527020424597
 20
-12.77314579208766
 30
0.0
  0
VERTEX
  5
7BE
  8
LAYER_1
 10
-66.15475758446449
 20
-12.99316415504828
 30
0.0
  0
VERTEX
  5
7BF
  8
LAYER_1
 10
-65.79626248394146
 20
-13.19145027321483
 30
0.0
  0
VERTEX
  5
7C0
  8
LAYER_1
 10
-65.46470359490658
 20
-13.35885594208676
 30
0.0
  0
VERTEX
  5
7C1
  8
LAYER_1
 10
-65.17499960958958
 20
-13.48623295716357
 30
0.0
  0
VERTEX
  5
7C2
  8
LAYER_1
 10
-64.56042957453758
 20
-13.71396715388384
 30
0.0
  0
VERTEX
  5
7C3
  8
LAYER_1
 10
-64.26147799738214
 20
-13.81307941735786
 30
0.0
  0
VERTEX
  5
7C4
  8
LAYER_1
 10
-63.96808021387015
 20
-13.90235565638261
 30
0.0
  0
VERTEX
  5
7C5
  8
LAYER_1
 10
-63.68023484904887
 20
-13.98179627006422
 30
0.0
  0
VERTEX
  5
7C6
  8
LAYER_1
 10
-63.39794052796562
 20
-14.05140165750878
 30
0.0
  0
VERTEX
  5
7C7
  8
LAYER_1
 10
-63.12119587566769
 20
-14.11117221782242
 30
0.0
  0
SEQEND
  5
D86
  8
LAYER_1
  0
POLYLINE
  5
76
  8
LAYER_1
 66
     1
 10
0.0
 20
0.0
 30
0.0
 70
     1
  0
VERTEX
  5
7C8
  8
LAYER_1
 10
59.28750533610582
 20
10.17240470245376
 30
0.0
  0
VERTEX
  5
7C9
  8
LAYER_1
 10
59.58750534802675
 20
10.14008268259539
 30
0.0
  0
VERTEX
  5
7CA
  8
LAYER_1
 10
60.71250539273024
 20
10.16288698852796
 30
0.0
  0
VERTEX
  5
7CB
  8
LAYER_1
 10
61.19150046028375
 20
10.18266521574182
 30
0.0
  0
VERTEX
  5
7CC
  8
LAYER_1
 10
61.66509860000971
 20
10.22272937405092
 30
0.0
  0
VERTEX
  5
7CD
  8
LAYER_1
 10
62.13433996496777
 20
10.28348725946108
 30
0.0
  0
VERTEX
  5
7CE
  8
LAYER_1
 10
62.60026470821758
 20
10.36534666797817
 30
0.0
  0
VERTEX
  5
7CF
  8
LAYER_1
 10
63.06391298281882
 20
10.46871539560801
 30
0.0
  0
VERTEX
  5
7D0
  8
LAYER_1
 10
63.52632494183116
 20
10.59400123835646
 30
0.0
  0
VERTEX
  5
7D1
  8
LAYER_1
 10
63.98854073831426
 20
10.74161199222934
 30
0.0
  0
VERTEX
  5
7D2
  8
LAYER_1
 10
64.45160052532775
 20
10.91195545323252
 30
0.0
  0
VERTEX
  5
7D3
  8
LAYER_1
 10
64.91654445593133
 20
11.10543941737182
 30
0.0
  0
VERTEX
  5
7D4
  8
LAYER_1
 10
65.38441268318465
 20
11.3224716806531
 30
0.0
  0
VERTEX
  5
7D5
  8
LAYER_1
 10
65.8562453601474
 20
11.56346003908219
 30
0.0
  0
VERTEX
  5
7D6
  8
LAYER_1
 10
66.33308263987921
 20
11.82881228866494
 30
0.0
  0
VERTEX
  5
7D7
  8
LAYER_1
 10
66.81596467543974
 20
12.11893622540719
 30
0.0
  0
VERTEX
  5
7D8
  8
LAYER_1
 10
67.30593161988867
 20
12.43423964531478
 30
0.0
  0
VERTEX
  5
7D9
  8
LAYER_1
 10
67.80402362628567
 20
12.77513034439356
 30
0.0
  0
VERTEX
  5
7DA
  8
LAYER_1
 10
68.3112808476904
 20
13.14201611864937
 30
0.0
  0
VERTEX
  5
7DB
  8
LAYER_1
 10
68.73796110088091
 20
13.47336177546174
 30
0.0
  0
VERTEX
  5
7DC
  8
LAYER_1
 10
69.14714385178799
 20
13.82105624589068
 30
0.0
  0
VERTEX
  5
7DD
  8
LAYER_1
 10
69.53844160432335
 20
14.18450413643643
 30
0.0
  0
VERTEX
  5
7DE
  8
LAYER_1
 10
69.91146686239874
 20
14.56311005359923
 30
0.0
  0
VERTEX
  5
7DF
  8
LAYER_1
 10
70.26583212992587
 20
14.95627860387933
 30
0.0
  0
VERTEX
  5
7E0
  8
LAYER_1
 10
70.60114991081647
 20
15.36341439377697
 30
0.0
  0
VERTEX
  5
7E1
  8
LAYER_1
 10
70.91703270898229
 20
15.7839220297924
 30
0.0
  0
VERTEX
  5
7E2
  8
LAYER_1
 10
71.21309302833504
 20
16.21720611842585
 30
0.0
  0
VERTEX
  5
7E3
  8
LAYER_1
 10
71.48894337278645
 20
16.66267126617757
 30
0.0
  0
VERTEX
  5
7E4
  8
LAYER_1
 10
71.74419624624824
 20
17.1197220795478
 30
0.0
  0
VERTEX
  5
7E5
  8
LAYER_1
 10
71.97846415263213
 20
17.58776316503679
 30
0.0
  0
VERTEX
  5
7E6
  8
LAYER_1
 10
72.19135959584989
 20
18.06619912914477
 30
0.0
  0
VERTEX
  5
7E7
  8
LAYER_1
 10
72.3824950798132
 20
18.55443457837199
 30
0.0
  0
VERTEX
  5
7E8
  8
LAYER_1
 10
72.55148310843384
 20
19.05187411921869
 30
0.0
  0
VERTEX
  5
7E9
  8
LAYER_1
 10
72.69793618562349
 20
19.55792235818512
 30
0.0
  0
VERTEX
  5
7EA
  8
LAYER_1
 10
72.82146681529392
 20
20.07198390177152
 30
0.0
  0
VERTEX
  5
7EB
  8
LAYER_1
 10
72.8771576989077
 20
20.350184878389
 30
0.0
  0
VERTEX
  5
7EC
  8
LAYER_1
 10
72.92696292206118
 20
20.64116862782267
 30
0.0
  0
VERTEX
  5
7ED
  8
LAYER_1
 10
73.00867776045453
 20
21.25375495733181
 30
0.0
  0
VERTEX
  5
7EE
  8
LAYER_1
 10
73.0661340774085
 20
21.89428391468547
 30
0.0
  0
VERTEX
  5
7EF
  8
LAYER_1
 10
73.09885461985766
 20
22.54729652427017
 30
0.0
  0
VERTEX
  5
7F0
  8
LAYER_1
 10
73.10636213473651
 20
23.1973338104724
 30
0.0
  0
VERTEX
  5
7F1
  8
LAYER_1
 10
73.08817936897961
 20
23.8289367976787
 30
0.0
  0
VERTEX
  5
7F2
  8
LAYER_1
 10
73.04382906952151
 20
24.42664651027559
 30
0.0
  0
VERTEX
  5
7F3
  8
LAYER_1
 10
73.01169195307153
 20
24.70796045871629
 30
0.0
  0
VERTEX
  5
7F4
  8
LAYER_1
 10
72.97283398329671
 20
24.97500397264957
 30
0.0
  0
VERTEX
  5
7F5
  8
LAYER_1
 10
72.89199178280975
 20
25.42264279939977
 30
0.0
  0
VERTEX
  5
7F6
  8
LAYER_1
 10
72.7950604028438
 20
25.8731309570211
 30
0.0
  0
VERTEX
  5
7F7
  8
LAYER_1
 10
72.68253363130493
 20
26.32531917413966
 30
0.0
  0
VERTEX
  5
7F8
  8
LAYER_1
 10
72.5549052560992
 20
26.77805817938154
 30
0.0
  0
VERTEX
  5
7F9
  8
LAYER_1
 10
72.41266906513266
 20
27.23019870137279
 30
0.0
  0
VERTEX
  5
7FA
  8
LAYER_1
 10
72.25631884631134
 20
27.68059146873952
 30
0.0
  0
VERTEX
  5
7FB
  8
LAYER_1
 10
72.0863483875413
 20
28.12808721010779
 30
0.0
  0
VERTEX
  5
7FC
  8
LAYER_1
 10
71.9032514767286
 20
28.5715366541037
 30
0.0
  0
VERTEX
  5
7FD
  8
LAYER_1
 10
71.70752190177929
 20
29.00979052935332
 30
0.0
  0
VERTEX
  5
7FE
  8
LAYER_1
 10
71.49965345059941
 20
29.44169956448274
 30
0.0
  0
VERTEX
  5
7FF
  8
LAYER_1
 10
71.280139911095
 20
29.86611448811803
 30
0.0
  0
VERTEX
  5
800
  8
LAYER_1
 10
71.04947507117215
 20
30.28188602888528
 30
0.0
  0
VERTEX
  5
801
  8
LAYER_1
 10
70.80815271873689
 20
30.68786491541057
 30
0.0
  0
VERTEX
  5
802
  8
LAYER_1
 10
70.55666664169526
 20
31.08290187631998
 30
0.0
  0
VERTEX
  5
803
  8
LAYER_1
 10
70.29551062795333
 20
31.46584764023958
 30
0.0
  0
VERTEX
  5
804
  8
LAYER_1
 10
70.02517846541713
 20
31.83555293579548
 30
0.0
  0
VERTEX
  5
805
  8
LAYER_1
 10
69.77106444200248
 20
32.153175288216
 30
0.0
  0
VERTEX
  5
806
  8
LAYER_1
 10
69.46073534168715
 20
32.51245597578956
 30
0.0
  0
VERTEX
  5
807
  8
LAYER_1
 10
69.11016012036595
 20
32.89698119766076
 30
0.0
  0
VERTEX
  5
808
  8
LAYER_1
 10
68.73530773393372
 20
33.29033715297422
 30
0.0
  0
VERTEX
  5
809
  8
LAYER_1
 10
68.35214713828525
 20
33.67611004087459
 30
0.0
  0
VERTEX
  5
80A
  8
LAYER_1
 10
67.97664728931537
 20
34.03788606050647
 30
0.0
  0
VERTEX
  5
80B
  8
LAYER_1
 10
67.6247771429189
 20
34.35925141101448
 30
0.0
  0
VERTEX
  5
80C
  8
LAYER_1
 10
67.31250565499067
 20
34.62379229154327
 30
0.0
  0
VERTEX
  5
80D
  8
LAYER_1
 10
66.87549061311435
 20
34.96272485641065
 30
0.0
  0
VERTEX
  5
80E
  8
LAYER_1
 10
66.43145482298394
 20
35.28310901201962
 30
0.0
  0
VERTEX
  5
80F
  8
LAYER_1
 10
65.98049779680271
 20
35.58490415050838
 30
0.0
  0
VERTEX
  5
810
  8
LAYER_1
 10
65.52271904677394
 20
35.8680696640151
 30
0.0
  0
VERTEX
  5
811
  8
LAYER_1
 10
65.0582180851009
 20
36.13256494467794
 30
0.0
  0
VERTEX
  5
812
  8
LAYER_1
 10
64.58709442398685
 20
36.3783493846351
 30
0.0
  0
VERTEX
  5
813
  8
LAYER_1
 10
64.1094475756351
 20
36.60538237602474
 30
0.0
  0
VERTEX
  5
814
  8
LAYER_1
 10
63.62537705224888
 20
36.81362331098507
 30
0.0
  0
VERTEX
  5
815
  8
LAYER_1
 10
63.13498236603149
 20
37.00303158165423
 30
0.0
  0
VERTEX
  5
816
  8
LAYER_1
 10
62.63836302918621
 20
37.17356658017042
 30
0.0
  0
VERTEX
  5
817
  8
LAYER_1
 10
62.13561855391629
 20
37.3251876986718
 30
0.0
  0
VERTEX
  5
818
  8
LAYER_1
 10
61.62684845242502
 20
37.45785432929657
 30
0.0
  0
VERTEX
  5
819
  8
LAYER_1
 10
61.11215223691567
 20
37.5715258641829
 30
0.0
  0
VERTEX
  5
81A
  8
LAYER_1
 10
60.59162941959151
 20
37.66616169546896
 30
0.0
  0
VERTEX
  5
81B
  8
LAYER_1
 10
60.06537951265582
 20
37.74172121529293
 30
0.0
  0
VERTEX
  5
81C
  8
LAYER_1
 10
59.53350202831186
 20
37.798163815793
 30
0.0
  0
VERTEX
  5
81D
  8
LAYER_1
 10
59.06515938246643
 20
37.82624231085671
 30
0.0
  0
VERTEX
  5
81E
  8
LAYER_1
 10
58.56614378053631
 20
37.83237973587688
 30
0.0
  0
VERTEX
  5
81F
  8
LAYER_1
 10
58.04801034926089
 20
37.81755387937564
 30
0.0
  0
VERTEX
  5
820
  8
LAYER_1
 10
57.52231421537961
 20
37.78274252987507
 30
0.0
  0
VERTEX
  5
821
  8
LAYER_1
 10
57.00061050563189
 20
37.72892347589728
 30
0.0
  0
VERTEX
  5
822
  8
LAYER_1
 10
56.49445434675716
 20
37.65707450596439
 30
0.0
  0
VERTEX
  5
823
  8
LAYER_1
 10
56.01540086549483
 20
37.5681734085985
 30
0.0
  0
VERTEX
  5
824
  8
LAYER_1
 10
55.57500518858433
 20
37.46319797232174
 30
0.0
  0
VERTEX
  5
825
  8
LAYER_1
 10
55.26969212755235
 20
37.38425093020843
 30
0.0
  0
VERTEX
  5
826
  8
LAYER_1
 10
55.11489691872706
 20
37.35089463007725
 30
0.0
  0
VERTEX
  5
827
  8
LAYER_1
 10
55.10423446785306
 20
37.35951156918482
 30
0.0
  0
VERTEX
  5
828
  8
LAYER_1
 10
55.09216292729143
 20
37.38455363529211
 30
0.0
  0
VERTEX
  5
829
  8
LAYER_1
 10
55.06545702213904
 20
37.47685748113241
 30
0.0
  0
VERTEX
  5
82A
  8
LAYER_1
 10
55.03810809333744
 20
37.6136948328511
 30
0.0
  0
VERTEX
  5
82B
  8
LAYER_1
 10
55.01344503095419
 20
37.78095435570116
 30
0.0
  0
VERTEX
  5
82C
  8
LAYER_1
 10
54.99023750016092
 20
37.93322913950278
 30
0.0
  0
VERTEX
  5
82D
  8
LAYER_1
 10
54.95852192975524
 20
38.088041224691
 30
0.0
  0
VERTEX
  5
82E
  8
LAYER_1
 10
54.8709438985716
 20
38.40256606751548
 30
0.0
  0
VERTEX
  5
82F
  8
LAYER_1
 10
54.75346539433322
 20
38.71910642075115
 30
0.0
  0
VERTEX
  5
830
  8
LAYER_1
 10
54.60884087397001
 20
39.03223982097452
 30
0.0
  0
VERTEX
  5
831
  8
LAYER_1
 10
54.43982479441192
 20
39.33654380476214
 30
0.0
  0
VERTEX
  5
832
  8
LAYER_1
 10
54.24917161258887
 20
39.62659590869053
 30
0.0
  0
VERTEX
  5
833
  8
LAYER_1
 10
54.0396357854308
 20
39.89697366933623
 30
0.0
  0
VERTEX
  5
834
  8
LAYER_1
 10
53.81397176986763
 20
40.14225462327576
 30
0.0
  0
VERTEX
  5
835
  8
LAYER_1
 10
53.68616424103872
 20
40.25881724725996
 30
0.0
  0
VERTEX
  5
836
  8
LAYER_1
 10
53.53468411157448
 20
40.3798860036628
 30
0.0
  0
VERTEX
  5
837
  8
LAYER_1
 10
53.36549256617948
 20
40.50171617668548
 30
0.0
  0
VERTEX
  5
838
  8
LAYER_1
 10
53.18455078955837
 20
40.62056305052923
 30
0.0
  0
VERTEX
  5
839
  8
LAYER_1
 10
52.99781996641573
 20
40.73268190939524
 30
0.0
  0
VERTEX
  5
83A
  8
LAYER_1
 10
52.81126128145617
 20
40.83432803748473
 30
0.0
  0
VERTEX
  5
83B
  8
LAYER_1
 10
52.63083591938428
 20
40.92175671899891
 30
0.0
  0
VERTEX
  5
83C
  8
LAYER_1
 10
52.46250506490469
 20
40.99122323813899
 30
0.0
  0
VERTEX
  5
83D
  8
LAYER_1
 10
52.18414319973266
 20
41.10869543645963
 30
0.0
  0
VERTEX
  5
83E
  8
LAYER_1
 10
52.0889441610478
 20
41.15968432727501
 30
0.0
  0
VERTEX
  5
83F
  8
LAYER_1
 10
52.04148597035046
 20
41.19652639922938
 30
0.0
  0
VERTEX
  5
840
  8
LAYER_1
 10
51.99546689069739
 20
41.26324920940989
 30
0.0
  0
VERTEX
  5
841
  8
LAYER_1
 10
51.94738206871052
 20
41.87537693897184
 30
0.0
  0
VERTEX
  5
842
  8
LAYER_1
 10
51.90519732872414
 20
42.3040809534261
 30
0.0
  0
VERTEX
  5
843
  8
LAYER_1
 10
51.84123485942264
 20
42.81711457363454
 30
0.0
  0
VERTEX
  5
844
  8
LAYER_1
 10
51.76087295099851
 20
43.38159863505128
 30
0.0
  0
VERTEX
  5
845
  8
LAYER_1
 10
51.66948989364424
 20
43.96465397313047
 30
0.0
  0
VERTEX
  5
846
  8
LAYER_1
 10
51.57246397755232
 20
44.53340142332621
 30
0.0
  0
VERTEX
  5
847
  8
LAYER_1
 10
51.47517349291521
 20
45.05496182109265
 30
0.0
  0
VERTEX
  5
848
  8
LAYER_1
 10
51.38299672992542
 20
45.49645600188391
 30
0.0
  0
VERTEX
  5
849
  8
LAYER_1
 10
51.30131197877543
 20
45.82500480115414
 30
0.0
  0
VERTEX
  5
84A
  8
LAYER_1
 10
51.22849319558384
 20
46.03378272317282
 30
0.0
  0
VERTEX
  5
84B
  8
LAYER_1
 10
51.13707004009514
 20
46.22068862795035
 30
0.0
  0
VERTEX
  5
84C
  8
LAYER_1
 10
51.02929764289809
 20
46.38524740921727
 30
0.0
  0
VERTEX
  5
84D
  8
LAYER_1
 10
50.90743113458144
 20
46.5269839607041
 30
0.0
  0
VERTEX
  5
84E
  8
LAYER_1
 10
50.77372564573395
 20
46.64542317614137
 30
0.0
  0
VERTEX
  5
84F
  8
LAYER_1
 10
50.63043630694435
 20
46.74008994925963
 30
0.0
  0
VERTEX
  5
850
  8
LAYER_1
 10
50.47981824880142
 20
46.81050917378938
 30
0.0
  0
VERTEX
  5
851
  8
LAYER_1
 10
50.32412660189391
 20
46.85620574346117
 30
0.0
  0
VERTEX
  5
852
  8
LAYER_1
 10
50.16561649681056
 20
46.87670455200551
 30
0.0
  0
VERTEX
  5
853
  8
LAYER_1
 10
50.00654306414013
 20
46.87153049315296
 30
0.0
  0
VERTEX
  5
854
  8
LAYER_1
 10
49.84916143447138
 20
46.84020846063403
 30
0.0
  0
VERTEX
  5
855
  8
LAYER_1
 10
49.69572673839305
 20
46.78226334817926
 30
0.0
  0
VERTEX
  5
856
  8
LAYER_1
 10
49.54849410649391
 20
46.69722004951917
 30
0.0
  0
VERTEX
  5
857
  8
LAYER_1
 10
49.40971866936269
 20
46.58460345838429
 30
0.0
  0
VERTEX
  5
858
  8
LAYER_1
 10
49.28165555758815
 20
46.44393846850516
 30
0.0
  0
VERTEX
  5
859
  8
LAYER_1
 10
49.16655990175906
 20
46.2747499736123
 30
0.0
  0
VERTEX
  5
85A
  8
LAYER_1
 10
49.01250492781401
 20
46.01250480860472
 30
0.0
  0
VERTEX
  5
85B
  8
LAYER_1
 10
49.01985189031744
 20
44.77500475943089
 30
0.0
  0
VERTEX
  5
85C
  8
LAYER_1
 10
49.03258271595189
 20
44.2086961431778
 30
0.0
  0
VERTEX
  5
85D
  8
LAYER_1
 10
49.06181474032378
 20
43.58156721200794
 30
0.0
  0
VERTEX
  5
85E
  8
LAYER_1
 10
49.10319915073391
 20
42.96990703145275
 30
0.0
  0
VERTEX
  5
85F
  8
LAYER_1
 10
49.15238713448312
 20
42.45000466704369
 30
0.0
  0
VERTEX
  5
860
  8
LAYER_1
 10
49.27757541614534
 20
41.36250462383032
 30
0.0
  0
VERTEX
  5
861
  8
LAYER_1
 10
49.31776987941338
 20
41.13750461488962
 30
0.0
  0
VERTEX
  5
862
  8
LAYER_1
 10
49.32822533024208
 20
41.06743019279339
 30
0.0
  0
VERTEX
  5
863
  8
LAYER_1
 10
49.32996168321374
 20
41.00998916551659
 30
0.0
  0
VERTEX
  5
864
  8
LAYER_1
 10
49.32012993621677
 20
40.96150939565628
 30
0.0
  0
VERTEX
  5
865
  8
LAYER_1
 10
49.29588108713958
 20
40.91831874580949
 30
0.0
  0
VERTEX
  5
866
  8
LAYER_1
 10
49.2543661338706
 20
40.87674507857326
 30
0.0
  0
VERTEX
  5
867
  8
LAYER_1
 10
49.19273607429827
 20
40.83311625654463
 30
0.0
  0
VERTEX
  5
868
  8
LAYER_1
 10
48.99773462779714
 20
40.72500459849834
 30
0.0
  0
VERTEX
  5
869
  8
LAYER_1
 10
48.80601924039465
 20
40.60853783565392
 30
0.0
  0
VERTEX
  5
86A
  8
LAYER_1
 10
48.59961682773803
 20
40.45377792911299
 30
0.0
  0
VERTEX
  5
86B
  8
LAYER_1
 10
48.38649721786172
 20
40.26893639773844
 30
0.0
  0
VERTEX
  5
86C
  8
LAYER_1
 10
48.17463023880018
 20
40.06222476039314
 30
0.0
  0
VERTEX
  5
86D
  8
LAYER_1
 10
47.97198571858787
 20
39.84185453593998
 30
0.0
  0
VERTEX
  5
86E
  8
LAYER_1
 10
47.78653348525923
 20
39.61603724324182
 30
0.0
  0
VERTEX
  5
86F
  8
LAYER_1
 10
47.6262433668487
 20
39.39298440116156
 30
0.0
  0
VERTEX
  5
870
  8
LAYER_1
 10
47.49908519139076
 20
39.18090752856205
 30
0.0
  0
VERTEX
  5
871
  8
LAYER_1
 10
47.37723474743943
 20
38.93755410380311
 30
0.0
  0
VERTEX
  5
872
  8
LAYER_1
 10
47.27589695613784
 20
38.7045254900037
 30
0.0
  0
VERTEX
  5
873
  8
LAYER_1
 10
47.19375697703713
 20
38.47637866574097
 30
0.0
  0
VERTEX
  5
874
  8
LAYER_1
 10
47.1294999696885
 20
38.24767060959206
 30
0.0
  0
VERTEX
  5
875
  8
LAYER_1
 10
47.0818110936431
 20
38.01295830013413
 30
0.0
  0
VERTEX
  5
876
  8
LAYER_1
 10
47.04937550845207
 20
37.76679871594431
 30
0.0
  0
VERTEX
  5
877
  8
LAYER_1
 10
47.0308783736666
 20
37.50374883559975
 30
0.0
  0
VERTEX
  5
878
  8
LAYER_1
 10
47.02500484883785
 20
37.21836563767761
 30
0.0
  0
VERTEX
  5
879
  8
LAYER_1
 10
47.03461062035356
 20
36.92527904782583
 30
0.0
  0
VERTEX
  5
87A
  8
LAYER_1
 10
47.06306898512356
 20
36.63554848530684
 30
0.0
  0
VERTEX
  5
87B
  8
LAYER_1
 10
47.10984151848214
 20
36.35117793168341
 30
0.0
  0
VERTEX
  5
87C
  8
LAYER_1
 10
47.17438979576357
 20
36.07417136851828
 30
0.0
  0
VERTEX
  5
87D
  8
LAYER_1
 10
47.25617539230214
 20
35.8065327773742
 30
0.0
  0
VERTEX
  5
87E
  8
LAYER_1
 10
47.35465988343214
 20
35.55026613981394
 30
0.0
  0
VERTEX
  5
87F
  8
LAYER_1
 10
47.46930484448786
 20
35.30737543740024
 30
0.0
  0
VERTEX
  5
880
  8
LAYER_1
 10
47.59957185080358
 20
35.07986465169586
 30
0.0
  0
VERTEX
  5
881
  8
LAYER_1
 10
47.72873884751598
 20
34.8951279196218
 30
0.0
  0
VERTEX
  5
882
  8
LAYER_1
 10
47.88754418374932
 20
34.70129482960201
 30
0.0
  0
VERTEX
  5
883
  8
LAYER_1
 10
48.06899580211407
 20
34.50486727097277
 30
0.0
  0
VERTEX
  5
884
  8
LAYER_1
 10
48.26610164522069
 20
34.31234713307038
 30
0.0
  0
VERTEX
  5
885
  8
LAYER_1
 10
48.47186965567959
 20
34.13023630523112
 30
0.0
  0
VERTEX
  5
886
  8
LAYER_1
 10
48.67930777610125
 20
33.9650366767913
 30
0.0
  0
VERTEX
  5
887
  8
LAYER_1
 10
48.8814239490961
 20
33.82325013708721
 30
0.0
  0
VERTEX
  5
888
  8
LAYER_1
 10
49.07122611727459
 20
33.71137857545514
 30
0.0
  0
VERTEX
  5
889
  8
LAYER_1
 10
49.37385181522647
 20
33.53973336633521
 30
0.0
  0
VERTEX
  5
88A
  8
LAYER_1
 10
49.46595235974015
 20
33.47698553411604
 30
0.0
  0
VERTEX
  5
88B
  8
LAYER_1
 10
49.49982675664008
 20
33.44143108611598
 30
0.0
  0
VERTEX
  5
88C
  8
LAYER_1
 10
49.47914450581825
 20
33.39758733727079
 30
0.0
  0
VERTEX
  5
88D
  8
LAYER_1
 10
49.42269972237665
 20
33.3122696265129
 30
0.0
  0
VERTEX
  5
88E
  8
LAYER_1
 10
49.23701641497736
 20
33.06643107121482
 30
0.0
  0
VERTEX
  5
88F
  8
LAYER_1
 10
48.6992271239471
 20
32.38236309871671
 30
0.0
  0
VERTEX
  5
890
  8
LAYER_1
 10
48.25163269576717
 20
31.78432383337073
 30
0.0
  0
VERTEX
  5
891
  8
LAYER_1
 10
47.88188081281816
 20
31.25101484516975
 30
0.0
  0
VERTEX
  5
892
  8
LAYER_1
 10
47.72233572654917
 20
31.00197844562141
 30
0.0
  0
VERTEX
  5
893
  8
LAYER_1
 10
47.57761915748062
 20
30.76113770410664
 30
0.0
  0
VERTEX
  5
894
  8
LAYER_1
 10
47.44618706591008
 20
30.52583031687457
 30
0.0
  0
VERTEX
  5
895
  8
LAYER_1
 10
47.32649541213511
 20
30.2933939801743
 30
0.0
  0
VERTEX
  5
896
  8
LAYER_1
 10
47.21700015645328
 20
30.06116639025493
 30
0.0
  0
VERTEX
  5
897
  8
LAYER_1
 10
47.11615725916218
 20
29.82648524336557
 30
0.0
  0
VERTEX
  5
898
  8
LAYER_1
 10
47.02242268055937
 20
29.58668823575535
 30
0.0
  0
VERTEX
  5
899
  8
LAYER_1
 10
46.9342523809424
 20
29.33911306367335
 30
0.0
  0
VERTEX
  5
89A
  8
LAYER_1
 10
46.76842845985632
 20
28.8099790110905
 30
0.0
  0
VERTEX
  5
89B
  8
LAYER_1
 10
46.6374161160477
 20
28.32409814080252
 30
0.0
  0
VERTEX
  5
89C
  8
LAYER_1
 10
46.52809629978937
 20
27.84073476499425
 30
0.0
  0
VERTEX
  5
89D
  8
LAYER_1
 10
46.43988975502533
 20
27.35487249202284
 30
0.0
  0
VERTEX
  5
89E
  8
LAYER_1
 10
46.37221722569954
 20
26.86149493024544
 30
0.0
  0
VERTEX
  5
89F
  8
LAYER_1
 10
46.32449945575601
 20
26.35558568801919
 30
0.0
  0
VERTEX
  5
8A0
  8
LAYER_1
 10
46.2961571891387
 20
25.83212837370123
 30
0.0
  0
VERTEX
  5
8A1
  8
LAYER_1
 10
46.28661116979157
 20
25.28610659564871
 30
0.0
  0
VERTEX
  5
8A2
  8
LAYER_1
 10
46.29528214165863
 20
24.71250396221876
 30
0.0
  0
VERTEX
  5
8A3
  8
LAYER_1
 10
46.33334692364531
 20
23.43750391155481
 30
0.0
  0
VERTEX
  5
8A4
  8
LAYER_1
 10
46.45600372578801
 20
22.76250388473272
 30
0.0
  0
VERTEX
  5
8A5
  8
LAYER_1
 10
46.54692682646087
 20
22.29214544618101
 30
0.0
  0
VERTEX
  5
8A6
  8
LAYER_1
 10
46.64657826354544
 20
21.83474360841291
 30
0.0
  0
VERTEX
  5
8A7
  8
LAYER_1
 10
46.755428771615
 20
21.38917505475082
 30
0.0
  0
VERTEX
  5
8A8
  8
LAYER_1
 10
46.87394908524287
 20
20.9543164685171
 30
0.0
  0
VERTEX
  5
8A9
  8
LAYER_1
 10
47.00260993900235
 20
20.52904453303415
 30
0.0
  0
VERTEX
  5
8AA
  8
LAYER_1
 10
47.14188206746673
 20
20.11223593162433
 30
0.0
  0
VERTEX
  5
8AB
  8
LAYER_1
 10
47.29223620520932
 20
19.70276734761002
 30
0.0
  0
VERTEX
  5
8AC
  8
LAYER_1
 10
47.45414308680343
 20
19.29951546431361
 30
0.0
  0
VERTEX
  5
8AD
  8
LAYER_1
 10
47.62807344682234
 20
18.90135696505749
 30
0.0
  0
VERTEX
  5
8AE
  8
LAYER_1
 10
47.81449801983936
 20
18.50716853316402
 30
0.0
  0
VERTEX
  5
8AF
  8
LAYER_1
 10
48.0138875404278
 20
18.11582685195558
 30
0.0
  0
VERTEX
  5
8B0
  8
LAYER_1
 10
48.22671274316095
 20
17.72620860475457
 30
0.0
  0
VERTEX
  5
8B1
  8
LAYER_1
 10
48.45344436261211
 20
17.33719047488335
 30
0.0
  0
VERTEX
  5
8B2
  8
LAYER_1
 10
48.69455313335459
 20
16.94764914566431
 30
0.0
  0
VERTEX
  5
8B3
  8
LAYER_1
 10
48.95050978996167
 20
16.55646130041983
 30
0.0
  0
VERTEX
  5
8B4
  8
LAYER_1
 10
49.22178506700668
 20
16.16250362247229
 30
0.0
  0
VERTEX
  5
8B5
  8
LAYER_1
 10
49.7507454474094
 20
15.41250359266996
 30
0.0
  0
VERTEX
  5
8B6
  8
LAYER_1
 10
51.93750504404306
 20
13.23290790450979
 30
0.0
  0
VERTEX
  5
8B7
  8
LAYER_1
 10
53.41842418733066
 20
12.19633500199319
 30
0.0
  0
VERTEX
  5
8B8
  8
LAYER_1
 10
53.7279646574101
 20
12.02252971662615
 30
0.0
  0
VERTEX
  5
8B9
  8
LAYER_1
 10
54.07563745974345
 20
11.8321867743595
 30
0.0
  0
VERTEX
  5
8BA
  8
LAYER_1
 10
54.4225205883577
 20
11.65205903199184
 30
0.0
  0
VERTEX
  5
8BB
  8
LAYER_1
 10
54.76877750162365
 20
11.48209209322711
 30
0.0
  0
VERTEX
  5
8BC
  8
LAYER_1
 10
55.11457165791211
 20
11.32223156176928
 30
0.0
  0
VERTEX
  5
8BD
  8
LAYER_1
 10
55.46006651559389
 20
11.1724230413223
 30
0.0
  0
VERTEX
  5
8BE
  8
LAYER_1
 10
55.80542553303982
 20
11.03261213559013
 30
0.0
  0
VERTEX
  5
8BF
  8
LAYER_1
 10
56.1508121686207
 20
10.90274444827673
 30
0.0
  0
VERTEX
  5
8C0
  8
LAYER_1
 10
56.49638988070735
 20
10.78276558308606
 30
0.0
  0
VERTEX
  5
8C1
  8
LAYER_1
 10
56.84232212767058
 20
10.67262114372207
 30
0.0
  0
VERTEX
  5
8C2
  8
LAYER_1
 10
57.18877236788121
 20
10.57225673388873
 30
0.0
  0
VERTEX
  5
8C3
  8
LAYER_1
 10
57.53590405971005
 20
10.48161795728998
 30
0.0
  0
VERTEX
  5
8C4
  8
LAYER_1
 10
57.8838806615279
 20
10.40065041762979
 30
0.0
  0
VERTEX
  5
8C5
  8
LAYER_1
 10
58.23286563170559
 20
10.32929971861212
 30
0.0
  0
VERTEX
  5
8C6
  8
LAYER_1
 10
58.58302242861394
 20
10.26751146394092
 30
0.0
  0
VERTEX
  5
8C7
  8
LAYER_1
 10
58.93451451062374
 20
10.21523125732014
 30
0.0
  0
SEQEND
  5
D87
  8
LAYER_1
  0
POLYLINE
  5
77
  8
LAYER_1
 66
     1
 10
0.0
 20
0.0
 30
0.0
 70
     1
  0
VERTEX
  5
8C8
  8
LAYER_1
 10
32.64436159243742
 20
15.07810106382408
 30
0.0
  0
VERTEX
  5
8C9
  8
LAYER_1
 10
32.84731426802362
 20
15.05351315457139
 30
0.0
  0
VERTEX
  5
8CA
  8
LAYER_1
 10
33.10928425716834
 20
15.03867728619165
 30
0.0
  0
VERTEX
  5
8CB
  8
LAYER_1
 10
33.39645359542737
 20
15.03474902115342
 30
0.0
  0
VERTEX
  5
8CC
  8
LAYER_1
 10
33.67500431835651
 20
15.04288392192524
 30
0.0
  0
VERTEX
  5
8CD
  8
LAYER_1
 10
33.91673677044813
 20
15.0613441505384
 30
0.0
  0
VERTEX
  5
8CE
  8
LAYER_1
 10
34.15868123159765
 20
15.08986292879197
 30
0.0
  0
VERTEX
  5
8CF
  8
LAYER_1
 10
34.40056214766059
 20
15.12824415827905
 30
0.0
  0
VERTEX
  5
8D0
  8
LAYER_1
 10
34.64210396449241
 20
15.17629174059277
 30
0.0
  0
VERTEX
  5
8D1
  8
LAYER_1
 10
34.8830311279486
 20
15.23380957732624
 30
0.0
  0
VERTEX
  5
8D2
  8
LAYER_1
 10
35.12306808388462
 20
15.30060157007259
 30
0.0
  0
VERTEX
  5
8D3
  8
LAYER_1
 10
35.36193927815596
 20
15.37647162042493
 30
0.0
  0
VERTEX
  5
8D4
  8
LAYER_1
 10
35.59936915661807
 20
15.46122362997638
 30
0.0
  0
VERTEX
  5
8D5
  8
LAYER_1
 10
35.83508216512647
 20
15.55466150032006
 30
0.0
  0
VERTEX
  5
8D6
  8
LAYER_1
 10
36.0688027495366
 20
15.65658913304908
 30
0.0
  0
VERTEX
  5
8D7
  8
LAYER_1
 10
36.30025535570395
 20
15.76681042975657
 30
0.0
  0
VERTEX
  5
8D8
  8
LAYER_1
 10
36.529164429484
 20
15.88512929203565
 30
0.0
  0
VERTEX
  5
8D9
  8
LAYER_1
 10
36.75525441673221
 20
16.01134962147944
 30
0.0
  0
VERTEX
  5
8DA
  8
LAYER_1
 10
36.97824976330408
 20
16.14527531968105
 30
0.0
  0
VERTEX
  5
8DB
  8
LAYER_1
 10
37.19787491505507
 20
16.2867102882336
 30
0.0
  0
VERTEX
  5
8DC
  8
LAYER_1
 10
37.41385431784067
 20
16.4354584287302
 30
0.0
  0
VERTEX
  5
8DD
  8
LAYER_1
 10
37.62591241751634
 20
16.591323642764
 30
0.0
  0
VERTEX
  5
8DE
  8
LAYER_1
 10
37.83377365993756
 20
16.75410983192808
 30
0.0
  0
VERTEX
  5
8DF
  8
LAYER_1
 10
38.03716249095982
 20
16.92362089781558
 30
0.0
  0
VERTEX
  5
8E0
  8
LAYER_1
 10
38.23580335643857
 20
17.09966074201962
 30
0.0
  0
VERTEX
  5
8E1
  8
LAYER_1
 10
38.42942070222931
 20
17.28203326613332
 30
0.0
  0
VERTEX
  5
8E2
  8
LAYER_1
 10
38.6177389741875
 20
17.47054237174979
 30
0.0
  0
VERTEX
  5
8E3
  8
LAYER_1
 10
38.80048261816864
 20
17.66499196046215
 30
0.0
  0
VERTEX
  5
8E4
  8
LAYER_1
 10
38.97737608002819
 20
17.86518593386351
 30
0.0
  0
VERTEX
  5
8E5
  8
LAYER_1
 10
39.14814380562163
 20
18.07092819354701
 30
0.0
  0
VERTEX
  5
8E6
  8
LAYER_1
 10
39.31251024080444
 20
18.28202264110575
 30
0.0
  0
VERTEX
  5
8E7
  8
LAYER_1
 10
39.47019983143208
 20
18.49827317813287
 30
0.0
  0
VERTEX
  5
8E8
  8
LAYER_1
 10
39.62093702336004
 20
18.71948370622146
 30
0.0
  0
VERTEX
  5
8E9
  8
LAYER_1
 10
39.76444626244378
 20
18.94545812696467
 30
0.0
  0
VERTEX
  5
8EA
  8
LAYER_1
 10
39.90045199453881
 20
19.17600034195559
 30
0.0
  0
VERTEX
  5
8EB
  8
LAYER_1
 10
40.02867866550059
 20
19.41091425278736
 30
0.0
  0
VERTEX
  5
8EC
  8
LAYER_1
 10
40.14885072118457
 20
19.65000376105309
 30
0.0
  0
VERTEX
  5
8ED
  8
LAYER_1
 10
40.27338085886757
 20
19.93367526995829
 30
0.0
  0
VERTEX
  5
8EE
  8
LAYER_1
 10
40.38111589281874
 20
20.23110179372916
 30
0.0
  0
VERTEX
  5
8EF
  8
LAYER_1
 10
40.47206269359636
 20
20.54042882701423
 30
0.0
  0
VERTEX
  5
8F0
  8
LAYER_1
 10
40.5462281317587
 20
20.85980186446201
 30
0.0
  0
VERTEX
  5
8F1
  8
LAYER_1
 10
40.60361907786402
 20
21.187366400721
 30
0.0
  0
VERTEX
  5
8F2
  8
LAYER_1
 10
40.64424240247061
 20
21.52126793043974
 30
0.0
  0
VERTEX
  5
8F3
  8
LAYER_1
 10
40.66810497613675
 20
21.85965194826674
 30
0.0
  0
VERTEX
  5
8F4
  8
LAYER_1
 10
40.67521366942069
 20
22.2006639488505
 30
0.0
  0
VERTEX
  5
8F5
  8
LAYER_1
 10
40.66557535288072
 20
22.54244942683954
 30
0.0
  0
VERTEX
  5
8F6
  8
LAYER_1
 10
40.63919689707511
 20
22.88315387688238
 30
0.0
  0
VERTEX
  5
8F7
  8
LAYER_1
 10
40.59608517256214
 20
23.22092279362753
 30
0.0
  0
VERTEX
  5
8F8
  8
LAYER_1
 10
40.53624704990007
 20
23.55390167172352
 30
0.0
  0
VERTEX
  5
8F9
  8
LAYER_1
 10
40.45968939964718
 20
23.88023600581884
 30
0.0
  0
VERTEX
  5
8FA
  8
LAYER_1
 10
40.36641909236175
 20
24.19807129056203
 30
0.0
  0
VERTEX
  5
8FB
  8
LAYER_1
 10
40.25644299860204
 20
24.50555302060159
 30
0.0
  0
VERTEX
  5
8FC
  8
LAYER_1
 10
40.12976798892633
 20
24.80082669058604
 30
0.0
  0
VERTEX
  5
8FD
  8
LAYER_1
 10
40.01438712853867
 20
25.03319464548865
 30
0.0
  0
VERTEX
  5
8FE
  8
LAYER_1
 10
39.88607467634861
 20
25.26577403828689
 30
0.0
  0
VERTEX
  5
8FF
  8
LAYER_1
 10
39.74700239173953
 20
25.49541341263518
 30
0.0
  0
VERTEX
  5
900
  8
LAYER_1
 10
39.59934203409487
 20
25.71896131218794
 30
0.0
  0
VERTEX
  5
901
  8
LAYER_1
 10
39.44526536279803
 20
25.9332662805996
 30
0.0
  0
VERTEX
  5
902
  8
LAYER_1
 10
39.2869441372324
 20
26.13517686152456
 30
0.0
  0
VERTEX
  5
903
  8
LAYER_1
 10
39.1265501167814
 20
26.32154159861725
 30
0.0
  0
VERTEX
  5
904
  8
LAYER_1
 10
38.96625506082844
 20
26.4892090355321
 30
0.0
  0
VERTEX
  5
905
  8
LAYER_1
 10
38.61894540578913
 20
26.83161270400838
 30
0.0
  0
VERTEX
  5
906
  8
LAYER_1
 10
38.86572497010624
 20
26.9772964863552
 30
0.0
  0
VERTEX
  5
907
  8
LAYER_1
 10
39.02228032388992
 20
27.08275393192825
 30
0.0
  0
VERTEX
  5
908
  8
LAYER_1
 10
39.20872376559881
 20
27.22938726300084
 30
0.0
  0
VERTEX
  5
909
  8
LAYER_1
 10
39.41461901696882
 20
27.40722337026751
 30
0.0
  0
VERTEX
  5
90A
  8
LAYER_1
 10
39.62952979973586
 20
27.60628914442278
 30
0.0
  0
VERTEX
  5
90B
  8
LAYER_1
 10
39.84301983563583
 20
27.81661147616121
 30
0.0
  0
VERTEX
  5
90C
  8
LAYER_1
 10
40.04465284640465
 20
28.02821725617732
 30
0.0
  0
VERTEX
  5
90D
  8
LAYER_1
 10
40.22399255377823
 20
28.23113337516566
 30
0.0
  0
VERTEX
  5
90E
  8
LAYER_1
 10
40.37060267949248
 20
28.41538672382076
 30
0.0
  0
VERTEX
  5
90F
  8
LAYER_1
 10
40.50896000100384
 20
28.61821819376075
 30
0.0
  0
VERTEX
  5
910
  8
LAYER_1
 10
40.65316554646873
 20
28.85767550987638
 30
0.0
  0
VERTEX
  5
911
  8
LAYER_1
 10
40.79833505837254
 20
29.12357900835777
 30
0.0
  0
VERTEX
  5
912
  8
LAYER_1
 10
40.93958427920074
 20
29.40574902539504
 30
0.0
  0
VERTEX
  5
913
  8
LAYER_1
 10
41.07202895143875
 20
29.69400589717829
 30
0.0
  0
VERTEX
  5
914
  8
LAYER_1
 10
41.19078481757199
 20
29.97816995989763
 30
0.0
  0
VERTEX
  5
915
  8
LAYER_1
 10
41.29096762008591
 20
30.24806154974318
 30
0.0
  0
VERTEX
  5
916
  8
LAYER_1
 10
41.36769310146592
 20
30.49350100290505
 30
0.0
  0
VERTEX
  5
917
  8
LAYER_1
 10
41.42553181350878
 20
30.75361445411774
 30
0.0
  0
VERTEX
  5
918
  8
LAYER_1
 10
41.47200614648926
 20
31.06449156251905
 30
0.0
  0
VERTEX
  5
919
  8
LAYER_1
 10
41.50648149759564
 20
31.41075202253169
 30
0.0
  0
VERTEX
  5
91A
  8
LAYER_1
 10
41.52832326401621
 20
31.77701552857837
 30
0.0
  0
VERTEX
  5
91B
  8
LAYER_1
 10
41.53689684293925
 20
32.14790177508181
 30
0.0
  0
VERTEX
  5
91C
  8
LAYER_1
 10
41.53156763155304
 20
32.50803045646472
 30
0.0
  0
VERTEX
  5
91D
  8
LAYER_1
 10
41.51170102704587
 20
32.84202126714983
 30
0.0
  0
VERTEX
  5
91E
  8
LAYER_1
 10
41.47666242660603
 20
33.13449390155985
 30
0.0
  0
VERTEX
  5
91F
  8
LAYER_1
 10
41.43687811399911
 20
33.35469120763953
 30
0.0
  0
VERTEX
  5
920
  8
LAYER_1
 10
41.38873042101142
 20
33.57275075852516
 30
0.0
  0
VERTEX
  5
921
  8
LAYER_1
 10
41.33239720584729
 20
33.7884761714065
 30
0.0
  0
VERTEX
  5
922
  8
LAYER_1
 10
41.26805632671112
 20
34.00167106347337
 30
0.0
  0
VERTEX
  5
923
  8
LAYER_1
 10
41.19588564180727
 20
34.21213905191555
 30
0.0
  0
VERTEX
  5
924
  8
LAYER_1
 10
41.11606300934011
 20
34.41968375392283
 30
0.0
  0
VERTEX
  5
925
  8
LAYER_1
 10
41.02876628751402
 20
34.62410878668499
 30
0.0
  0
VERTEX
  5
926
  8
LAYER_1
 10
40.93417333453338
 20
34.82521776739181
 30
0.0
  0
VERTEX
  5
927
  8
LAYER_1
 10
40.83246200860254
 20
35.02281431323311
 30
0.0
  0
VERTEX
  5
928
  8
LAYER_1
 10
40.72381016792588
 20
35.21670204139865
 30
0.0
  0
VERTEX
  5
929
  8
LAYER_1
 10
40.60839567070777
 20
35.40668456907825
 30
0.0
  0
VERTEX
  5
92A
  8
LAYER_1
 10
40.48639637515259
 20
35.59256551346166
 30
0.0
  0
VERTEX
  5
92B
  8
LAYER_1
 10
40.35799013946472
 20
35.7741484917387
 30
0.0
  0
VERTEX
  5
92C
  8
LAYER_1
 10
40.22335482184852
 20
35.95123712109915
 30
0.0
  0
VERTEX
  5
92D
  8
LAYER_1
 10
40.08266828050836
 20
36.12363501873278
 30
0.0
  0
VERTEX
  5
92E
  8
LAYER_1
 10
39.9361083736486
 20
36.29114580182942
 30
0.0
  0
VERTEX
  5
92F
  8
LAYER_1
 10
39.78385295947363
 20
36.45357308757882
 30
0.0
  0
VERTEX
  5
930
  8
LAYER_1
 10
39.62607989618783
 20
36.61072049317078
 30
0.0
  0
VERTEX
  5
931
  8
LAYER_1
 10
39.46296704199556
 20
36.7623916357951
 30
0.0
  0
VERTEX
  5
932
  8
LAYER_1
 10
39.2946922551012
 20
36.90839013264156
 30
0.0
  0
VERTEX
  5
933
  8
LAYER_1
 10
39.1214333937091
 20
37.04851960089994
 30
0.0
  0
VERTEX
  5
934
  8
LAYER_1
 10
38.94336831602365
 20
37.18258365776004
 30
0.0
  0
VERTEX
  5
935
  8
LAYER_1
 10
38.76067488024922
 20
37.31038592041165
 30
0.0
  0
VERTEX
  5
936
  8
LAYER_1
 10
38.57353094459018
 20
37.43173000604457
 30
0.0
  0
VERTEX
  5
937
  8
LAYER_1
 10
38.38211436725091
 20
37.54641953184856
 30
0.0
  0
VERTEX
  5
938
  8
LAYER_1
 10
38.18660300643577
 20
37.65425811501343
 30
0.0
  0
VERTEX
  5
939
  8
LAYER_1
 10
37.98717472034915
 20
37.75504937272896
 30
0.0
  0
VERTEX
  5
93A
  8
LAYER_1
 10
37.78400736719539
 20
37.84859692218494
 30
0.0
  0
VERTEX
  5
93B
  8
LAYER_1
 10
37.57727880517889
 20
37.93470438057116
 30
0.0
  0
VERTEX
  5
93C
  8
LAYER_1
 10
37.367166892504
 20
38.01317536507742
 30
0.0
  0
VERTEX
  5
93D
  8
LAYER_1
 10
37.15384948737513
 20
38.08381349289348
 30
0.0
  0
VERTEX
  5
93E
  8
LAYER_1
 10
36.93750444799662
 20
38.14642238120916
 30
0.0
  0
VERTEX
  5
93F
  8
LAYER_1
 10
36.78580110209226
 20
38.1837608187648
 30
0.0
  0
VERTEX
  5
940
  8
LAYER_1
 10
36.63080157470777
 20
38.21437356942947
 30
0.0
  0
VERTEX
  5
941
  8
LAYER_1
 10
36.46636157625588
 20
38.23878000465099
 30
0.0
  0
VERTEX
  5
942
  8
LAYER_1
 10
36.28633681714935
 20
38.2574994958772
 30
0.0
  0
VERTEX
  5
943
  8
LAYER_1
 10
35.8549558586233
 20
38.2799551321349
 30
0.0
  0
VERTEX
  5
944
  8
LAYER_1
 10
35.28750438243151
 20
38.28589544978516
 30
0.0
  0
VERTEX
  5
945
  8
LAYER_1
 10
34.6404336831898
 20
38.27962345713631
 30
0.0
  0
VERTEX
  5
946
  8
LAYER_1
 10
34.41038916181441
 20
38.26871455259332
 30
0.0
  0
VERTEX
  5
947
  8
LAYER_1
 10
34.21708611651394
 20
38.24912334213278
 30
0.0
  0
VERTEX
  5
948
  8
LAYER_1
 10
34.04133524022188
 20
38.2182245504258
 30
0.0
  0
VERTEX
  5
949
  8
LAYER_1
 10
33.8639472258717
 20
38.17339290214353
 30
0.0
  0
VERTEX
  5
94A
  8
LAYER_1
 10
33.42750255473084
 20
38.03142993453758
 30
0.0
  0
VERTEX
  5
94B
  8
LAYER_1
 10
33.17596962957519
 20
37.93883069294615
 30
0.0
  0
VERTEX
  5
94C
  8
LAYER_1
 10
32.91906342123961
 20
37.83283257966774
 30
0.0
  0
VERTEX
  5
94D
  8
LAYER_1
 10
32.66186567662804
 20
37.71605777899386
 30
0.0
  0
VERTEX
  5
94E
  8
LAYER_1
 10
32.40945814264445
 20
37.59112847521597
 30
0.0
  0
VERTEX
  5
94F
  8
LAYER_1
 10
32.1669225661928
 20
37.46066685262562
 30
0.0
  0
VERTEX
  5
950
  8
LAYER_1
 10
31.93934069417704
 20
37.32729509551429
 30
0.0
  0
VERTEX
  5
951
  8
LAYER_1
 10
31.73179427350112
 20
37.1936353881735
 30
0.0
  0
VERTEX
  5
952
  8
LAYER_1
 10
31.54936505106902
 20
37.06230991489473
 30
0.0
  0
VERTEX
  5
953
  8
LAYER_1
 10
31.30527987133937
 20
36.8539569936117
 30
0.0
  0
VERTEX
  5
954
  8
LAYER_1
 10
31.03776988326283
 20
36.59060200070296
 30
0.0
  0
VERTEX
  5
955
  8
LAYER_1
 10
30.76127728031811
 20
36.28999960385771
 30
0.0
  0
VERTEX
  5
956
  8
LAYER_1
 10
30.49024425598392
 20
35.96990447076513
 30
0.0
  0
VERTEX
  5
957
  8
LAYER_1
 10
30.23911300373896
 20
35.64807126911442
 30
0.0
  0
VERTEX
  5
958
  8
LAYER_1
 10
30.02232571706196
 20
35.34225466659478
 30
0.0
  0
VERTEX
  5
959
  8
LAYER_1
 10
29.85432458943162
 20
35.07020933089539
 30
0.0
  0
VERTEX
  5
95A
  8
LAYER_1
 10
29.79313202072105
 20
34.95239922175615
 30
0.0
  0
VERTEX
  5
95B
  8
LAYER_1
 10
29.74955181432667
 20
34.84968992970543
 30
0.0
  0
VERTEX
  5
95C
  8
LAYER_1
 10
29.73306820354301
 20
34.81210579702697
 30
0.0
  0
VERTEX
  5
95D
  8
LAYER_1
 10
29.71282117518727
 20
34.78280374584381
 30
0.0
  0
VERTEX
  5
95E
  8
LAYER_1
 10
29.687137189308
 20
34.76129863402087
 30
0.0
  0
VERTEX
  5
95F
  8
LAYER_1
 10
29.65434270595373
 20
34.74710531942309
 30
0.0
  0
VERTEX
  5
960
  8
LAYER_1
 10
29.56072808701436
 20
34.7387135133627
 30
0.0
  0
VERTEX
  5
961
  8
LAYER_1
 10
29.4185889987575
 20
34.75374719058203
 30
0.0
  0
VERTEX
  5
962
  8
LAYER_1
 10
28.72500412166119
 20
34.83581860816851
 30
0.0
  0
VERTEX
  5
963
  8
LAYER_1
 10
28.31250410526991
 20
34.8760183240732
 30
0.0
  0
VERTEX
  5
964
  8
LAYER_1
 10
27.26250406354666
 20
34.99199605003736
 30
0.0
  0
VERTEX
  5
965
  8
LAYER_1
 10
25.12500397861004
 20
35.21350360897648
 30
0.0
  0
VERTEX
  5
966
  8
LAYER_1
 10
23.97141018277034
 20
35.33294070087618
 30
0.0
  0
VERTEX
  5
967
  8
LAYER_1
 10
22.72500388324261
 20
35.47190713509572
 30
0.0
  0
VERTEX
  5
968
  8
LAYER_1
 10
21.41250383108854
 20
35.62478082823999
 30
0.0
  0
VERTEX
  5
969
  8
LAYER_1
 10
21.13568009466667
 20
35.62489261204128
 30
0.0
  0
VERTEX
  5
96A
  8
LAYER_1
 10
21.02518212805716
 20
35.62981034331327
 30
0.0
  0
VERTEX
  5
96B
  8
LAYER_1
 10
20.92895847858173
 20
35.64311757144922
 30
0.0
  0
VERTEX
  5
96C
  8
LAYER_1
 10
20.85734514794797
 20
35.66278368038327
 30
0.0
  0
VERTEX
  5
96D
  8
LAYER_1
 10
20.82067813786351
 20
35.6867780540495
 30
0.0
  0
VERTEX
  5
96E
  8
LAYER_1
 10
20.81773767452389
 20
35.74879455469967
 30
0.0
  0
VERTEX
  5
96F
  8
LAYER_1
 10
20.83795405037364
 20
35.87198625690682
 30
0.0
  0
VERTEX
  5
970
  8
LAYER_1
 10
20.8776383664938
 20
36.03851136308698
 30
0.0
  0
VERTEX
  5
971
  8
LAYER_1
 10
20.93310172396539
 20
36.23052807565618
 30
0.0
  0
VERTEX
  5
972
  8
LAYER_1
 10
21.00682405910174
 20
36.51598661189745
 30
0.0
  0
VERTEX
  5
973
  8
LAYER_1
 10
21.05775096103021
 20
36.8227973481981
 30
0.0
  0
VERTEX
  5
974
  8
LAYER_1
 10
21.08599595403757
 20
37.14421455633454
 30
0.0
  0
VERTEX
  5
975
  8
LAYER_1
 10
21.0916725624106
 20
37.47349250808315
 30
0.0
  0
VERTEX
  5
976
  8
LAYER_1
 10
21.07489431043607
 20
37.80388547522035
 30
0.0
  0
VERTEX
  5
977
  8
LAYER_1
 10
21.03577472240076
 20
38.12864772952253
 30
0.0
  0
VERTEX
  5
978
  8
LAYER_1
 10
20.97442732259142
 20
38.44103354276608
 30
0.0
  0
VERTEX
  5
979
  8
LAYER_1
 10
20.89096563529485
 20
38.7342971867274
 30
0.0
  0
VERTEX
  5
97A
  8
LAYER_1
 10
20.81180088757995
 20
38.95185144112298
 30
0.0
  0
VERTEX
  5
97B
  8
LAYER_1
 10
20.72245072889964
 20
39.16356344961592
 30
0.0
  0
VERTEX
  5
97C
  8
LAYER_1
 10
20.62320742669683
 20
39.36910678309184
 30
0.0
  0
VERTEX
  5
97D
  8
LAYER_1
 10
20.5143632484144
 20
39.56815501243636
 30
0.0
  0
VERTEX
  5
97E
  8
LAYER_1
 10
20.39621046149527
 20
39.76038170853512
 30
0.0
  0
VERTEX
  5
97F
  8
LAYER_1
 10
20.26904133338232
 20
39.94546044227376
 30
0.0
  0
VERTEX
  5
980
  8
LAYER_1
 10
20.13314813151845
 20
40.12306478453789
 30
0.0
  0
VERTEX
  5
981
  8
LAYER_1
 10
19.98882312334656
 20
40.29286830621314
 30
0.0
  0
VERTEX
  5
982
  8
LAYER_1
 10
19.83635857630955
 20
40.45454457818514
 30
0.0
  0
VERTEX
  5
983
  8
LAYER_1
 10
19.67604675785032
 20
40.60776717133952
 30
0.0
  0
VERTEX
  5
984
  8
LAYER_1
 10
19.50817993541175
 20
40.75220965656192
 30
0.0
  0
VERTEX
  5
985
  8
LAYER_1
 10
19.33305037643676
 20
40.88754560473795
 30
0.0
  0
VERTEX
  5
986
  8
LAYER_1
 10
19.15095034836823
 20
41.01344858675325
 30
0.0
  0
VERTEX
  5
987
  8
LAYER_1
 10
18.96217211864908
 20
41.12959217349345
 30
0.0
  0
VERTEX
  5
988
  8
LAYER_1
 10
18.76700795472218
 20
41.23564993584418
 30
0.0
  0
VERTEX
  5
989
  8
LAYER_1
 10
18.56575012403044
 20
41.33129544469105
 30
0.0
  0
VERTEX
  5
98A
  8
LAYER_1
 10
18.44957743381554
 20
41.38466544527962
 30
0.0
  0
VERTEX
  5
98B
  8
LAYER_1
 10
18.36045574355978
 20
41.43542748552187
 30
0.0
  0
VERTEX
  5
98C
  8
LAYER_1
 10
18.2933769011379
 20
41.493889995773
 30
0.0
  0
VERTEX
  5
98D
  8
LAYER_1
 10
18.24333275442461
 20
41.57036140638817
 30
0.0
  0
VERTEX
  5
98E
  8
LAYER_1
 10
18.20531515129463
 20
41.67515014772259
 30
0.0
  0
VERTEX
  5
98F
  8
LAYER_1
 10
18.17431593962268
 20
41.81856465013143
 30
0.0
  0
VERTEX
  5
990
  8
LAYER_1
 10
18.11334008215174
 20
42.26250465959311
 30
0.0
  0
VERTEX
  5
991
  8
LAYER_1
 10
18.06702612789147
 20
42.63750467449427
 30
0.0
  0
VERTEX
  5
992
  8
LAYER_1
 10
17.54749833142294
 20
45.2359443951527
 30
0.0
  0
VERTEX
  5
993
  8
LAYER_1
 10
17.40818300784147
 20
45.73672460634906
 30
0.0
  0
VERTEX
  5
994
  8
LAYER_1
 10
17.26154914674223
 20
46.21738134037589
 30
0.0
  0
VERTEX
  5
995
  8
LAYER_1
 10
17.19017901048192
 20
46.41193078222007
 30
0.0
  0
VERTEX
  5
996
  8
LAYER_1
 10
17.11768304694986
 20
46.5811547792155
 30
0.0
  0
VERTEX
  5
997
  8
LAYER_1
 10
17.04224348854761
 20
46.72894871031023
 30
0.0
  0
VERTEX
  5
998
  8
LAYER_1
 10
16.9620425676767
 20
46.85920795445232
 30
0.0
  0
VERTEX
  5
999
  8
LAYER_1
 10
16.87526251673868
 20
46.97582789058983
 30
0.0
  0
VERTEX
  5
99A
  8
LAYER_1
 10
16.78008556813508
 20
47.08270389767083
 30
0.0
  0
VERTEX
  5
99B
  8
LAYER_1
 10
16.64330794020282
 20
47.20548705462061
 30
0.0
  0
VERTEX
  5
99C
  8
LAYER_1
 10
16.4985238896361
 20
47.30147067439489
 30
0.0
  0
VERTEX
  5
99D
  8
LAYER_1
 10
16.34783463516895
 20
47.37148972580438
 30
0.0
  0
VERTEX
  5
99E
  8
LAYER_1
 10
16.19334139553539
 20
47.41637917765981
 30
0.0
  0
VERTEX
  5
99F
  8
LAYER_1
 10
16.03714538946944
 20
47.43697399877188
 30
0.0
  0
VERTEX
  5
9A0
  8
LAYER_1
 10
15.88134783570512
 20
47.43410915795133
 30
0.0
  0
VERTEX
  5
9A1
  8
LAYER_1
 10
15.72804995297646
 20
47.40861962400886
 30
0.0
  0
VERTEX
  5
9A2
  8
LAYER_1
 10
15.57935296001748
 20
47.36134036575522
 30
0.0
  0
VERTEX
  5
9A3
  8
LAYER_1
 10
15.4373580755622
 20
47.29310635200111
 30
0.0
  0
VERTEX
  5
9A4
  8
LAYER_1
 10
15.30416651834465
 20
47.20475255155727
 30
0.0
  0
VERTEX
  5
9A5
  8
LAYER_1
 10
15.18187950709885
 20
47.09711393323441
 30
0.0
  0
VERTEX
  5
9A6
  8
LAYER_1
 10
15.07259826055881
 20
46.97102546584325
 30
0.0
  0
VERTEX
  5
9A7
  8
LAYER_1
 10
14.97842399745858
 20
46.82732211819452
 30
0.0
  0
VERTEX
  5
9A8
  8
LAYER_1
 10
14.90145793653215
 20
46.66683885909892
 30
0.0
  0
VERTEX
  5
9A9
  8
LAYER_1
 10
14.84380129651357
 20
46.4904106573672
 30
0.0
  0
VERTEX
  5
9AA
  8
LAYER_1
 10
14.80755529613685
 20
46.29887248181006
 30
0.0
  0
VERTEX
  5
9AB
  8
LAYER_1
 10
14.78872500073714
 20
46.06420067492716
 30
0.0
  0
VERTEX
  5
9AC
  8
LAYER_1
 10
14.78409123324235
 20
45.77800919871019
 30
0.0
  0
VERTEX
  5
9AD
  8
LAYER_1
 10
14.7934600575223
 20
45.4429062211676
 30
0.0
  0
VERTEX
  5
9AE
  8
LAYER_1
 10
14.81663753744679
 20
45.06149991030781
 30
0.0
  0
VERTEX
  5
9AF
  8
LAYER_1
 10
14.85342973688561
 20
44.63639843413929
 30
0.0
  0
VERTEX
  5
9B0
  8
LAYER_1
 10
14.90364271970856
 20
44.17020996067048
 30
0.0
  0
VERTEX
  5
9B1
  8
LAYER_1
 10
14.96708254978545
 20
43.66554265790982
 30
0.0
  0
VERTEX
  5
9B2
  8
LAYER_1
 10
15.04355529098608
 20
43.12500469386578
 30
0.0
  0
VERTEX
  5
9B3
  8
LAYER_1
 10
15.22759119072259
 20
41.88750464469194
 30
0.0
  0
VERTEX
  5
9B4
  8
LAYER_1
 10
15.2704436050325
 20
41.65281962409766
 30
0.0
  0
VERTEX
  5
9B5
  8
LAYER_1
 10
15.28234153547653
 20
41.57769558617504
 30
0.0
  0
VERTEX
  5
9B6
  8
LAYER_1
 10
15.28482339484934
 20
41.51701898448455
 30
0.0
  0
VERTEX
  5
9B7
  8
LAYER_1
 10
15.27400694672574
 20
41.46626239172263
 30
0.0
  0
VERTEX
  5
9B8
  8
LAYER_1
 10
15.2460099546805
 20
41.42089838058569
 30
0.0
  0
VERTEX
  5
9B9
  8
LAYER_1
 10
15.19695018228842
 20
41.37639952377016
 30
0.0
  0
VERTEX
  5
9BA
  8
LAYER_1
 10
15.1229453931243
 20
41.32823839397246
 30
0.0
  0
VERTEX
  5
9BB
  8
LAYER_1
 10
14.88457181877909
 20
41.20281960621627
 30
0.0
  0
VERTEX
  5
9BC
  8
LAYER_1
 10
14.66022633489349
 20
41.07452456695441
 30
0.0
  0
VERTEX
  5
9BD
  8
LAYER_1
 10
14.42398179531525
 20
40.9112661017342
 30
0.0
  0
VERTEX
  5
9BE
  8
LAYER_1
 10
14.18353945407531
 20
40.72030175656599
 30
0.0
  0
VERTEX
  5
9BF
  8
LAYER_1
 10
13.94660056520461
 20
40.50888907746011
 30
0.0
  0
VERTEX
  5
9C0
  8
LAYER_1
 10
13.72086638273409
 20
40.28428561042692
 30
0.0
  0
VERTEX
  5
9C1
  8
LAYER_1
 10
13.51403816069468
 20
40.05374890147675
 30
0.0
  0
VERTEX
  5
9C2
  8
LAYER_1
 10
13.33381715311732
 20
39.82453649661997
 30
0.0
  0
VERTEX
  5
9C3
  8
LAYER_1
 10
13.18790461403295
 20
39.6039059418669
 30
0.0
  0
VERTEX
  5
9C4
  8
LAYER_1
 10
13.04313132387383
 20
39.33560261840872
 30
0.0
  0
VERTEX
  5
9C5
  8
LAYER_1
 10
12.91873371538029
 20
39.05649010314474
 30
0.0
  0
VERTEX
  5
9C6
  8
LAYER_1
 10
12.81496331347603
 20
38.76761661795867
 30
0.0
  0
VERTEX
  5
9C7
  8
LAYER_1
 10
12.73207164308472
 20
38.47003038473426
 30
0.0
  0
VERTEX
  5
9C8
  8
LAYER_1
 10
12.67031022913006
 20
38.16477962535521
 30
0.0
  0
VERTEX
  5
9C9
  8
LAYER_1
 10
12.62993059653573
 20
37.85291256170527
 30
0.0
  0
VERTEX
  5
9CA
  8
LAYER_1
 10
12.61118427022541
 20
37.53547741566817
 30
0.0
  0
VERTEX
  5
9CB
  8
LAYER_1
 10
12.6143227751228
 20
37.21352240912763
 30
0.0
  0
VERTEX
  5
9CC
  8
LAYER_1
 10
12.64506528185912
 20
36.51062050918058
 30
0.0
  0
VERTEX
  5
9CD
  8
LAYER_1
 10
12.07218035099598
 20
36.60222850451532
 30
0.0
  0
VERTEX
  5
9CE
  8
LAYER_1
 10
11.00484186305451
 20
36.71087059223983
 30
0.0
  0
VERTEX
  5
9CF
  8
LAYER_1
 10
7.762503288686275
 20
37.05136710740993
 30
0.0
  0
VERTEX
  5
9D0
  8
LAYER_1
 10
6.212637802681328
 20
37.21140800351017
 30
0.0
  0
VERTEX
  5
9D1
  8
LAYER_1
 10
5.337772343498472
 20
37.29902382995526
 30
0.0
  0
VERTEX
  5
9D2
  8
LAYER_1
 10
5.245439846523084
 20
37.64326415983757
 30
0.0
  0
VERTEX
  5
9D3
  8
LAYER_1
 10
5.182507185298675
 20
37.84864300653011
 30
0.0
  0
VERTEX
  5
9D4
  8
LAYER_1
 10
5.098700831466987
 20
38.07738845649797
 30
0.0
  0
VERTEX
  5
9D5
  8
LAYER_1
 10
4.99777476701944
 20
38.32157348437563
 30
0.0
  0
VERTEX
  5
9D6
  8
LAYER_1
 10
4.883482973947459
 20
38.57327106479759
 30
0.0
  0
VERTEX
  5
9D7
  8
LAYER_1
 10
4.759579434242466
 20
38.82455417239832
 30
0.0
  0
VERTEX
  5
9D8
  8
LAYER_1
 10
4.629818129895883
 20
39.06749578181231
 30
0.0
  0
VERTEX
  5
9D9
  8
LAYER_1
 10
4.497953042899135
 20
39.29416886767405
 30
0.0
  0
VERTEX
  5
9DA
  8
LAYER_1
 10
4.367738155243643
 20
39.49664640461801
 30
0.0
  0
VERTEX
  5
9DB
  8
LAYER_1
 10
4.227603087439451
 20
39.68377582910308
 30
0.0
  0
VERTEX
  5
9DC
  8
LAYER_1
 10
4.043896973545936
 20
39.90213069307504
 30
0.0
  0
VERTEX
  5
9DD
  8
LAYER_1
 10
3.829085019869316
 20
40.13908457338864
 30
0.0
  0
VERTEX
  5
9DE
  8
LAYER_1
 10
3.59563243271581
 20
40.38201104689868
 30
0.0
  0
VERTEX
  5
9DF
  8
LAYER_1
 10
3.356004418391637
 20
40.61828369045993
 30
0.0
  0
VERTEX
  5
9E0
  8
LAYER_1
 10
3.122666183203017
 20
40.83527608092719
 30
0.0
  0
VERTEX
  5
9E1
  8
LAYER_1
 10
2.908082933456168
 20
41.02036179515522
 30
0.0
  0
VERTEX
  5
9E2
  8
LAYER_1
 10
2.724719875457311
 20
41.16091440999881
 30
0.0
  0
VERTEX
  5
9E3
  8
LAYER_1
 10
2.519347780031513
 20
41.29392763160637
 30
0.0
  0
VERTEX
  5
9E4
  8
LAYER_1
 10
2.28497686792196
 20
41.4275555828644
 30
0.0
  0
VERTEX
  5
9E5
  8
LAYER_1
 10
2.026164759774865
 20
41.55979078869035
 30
0.0
  0
VERTEX
  5
9E6
  8
LAYER_1
 10
1.747469076236447
 20
41.68862577400164
 30
0.0
  0
VERTEX
  5
9E7
  8
LAYER_1
 10
1.453447437952922
 20
41.81205306371569
 30
0.0
  0
VERTEX
  5
9E8
  8
LAYER_1
 10
1.148657465570505
 20
41.92806518274993
 30
0.0
  0
VERTEX
  5
9E9
  8
LAYER_1
 10
0.8376567797354139
 20
42.03465465602179
 30
0.0
  0
VERTEX
  5
9EA
  8
LAYER_1
 10
0.5250030010938644
 20
42.12981400844868
 30
0.0
  0
VERTEX
  5
9EB
  8
LAYER_1
 10
0.4073150208260656
 20
42.15793838043664
 30
0.0
  0
VERTEX
  5
9EC
  8
LAYER_1
 10
0.2673941690051947
 20
42.18226162617286
 30
0.0
  0
VERTEX
  5
9ED
  8
LAYER_1
 10
-0.0664607767215863
 20
42.21952186808119
 30
0.0
  0
VERTEX
  5
9EE
  8
LAYER_1
 10
-0.4511910909381237
 20
42.24162899255592
 30
0.0
  0
VERTEX
  5
9EF
  8
LAYER_1
 10
-0.8614260284960622
 20
42.24861725797932
 30
0.0
  0
VERTEX
  5
9F0
  8
LAYER_1
 10
-1.271794844247047
 20
42.24052092273365
 30
0.0
  0
VERTEX
  5
9F1
  8
LAYER_1
 10
-1.656926793042723
 20
42.21737424520119
 30
0.0
  0
VERTEX
  5
9F2
  8
LAYER_1
 10
-1.991451129734735
 20
42.17921148376418
 30
0.0
  0
VERTEX
  5
9F3
  8
LAYER_1
 10
-2.131807085683006
 20
42.15450977732592
 30
0.0
  0
VERTEX
  5
9F4
  8
LAYER_1
 10
-2.249997109174728
 20
42.12606689680489
 30
0.0
  0
VERTEX
  5
9F5
  8
LAYER_1
 10
-2.962497137486935
 20
41.92059561180676
 30
0.0
  0
VERTEX
  5
9F6
  8
LAYER_1
 10
-3.256139886901574
 20
41.82248150157398
 30
0.0
  0
VERTEX
  5
9F7
  8
LAYER_1
 10
-3.548976082480051
 20
41.70039150282141
 30
0.0
  0
VERTEX
  5
9F8
  8
LAYER_1
 10
-3.839685504421459
 20
41.55560148892523
 30
0.0
  0
VERTEX
  5
9F9
  8
LAYER_1
 10
-4.126947932924889
 20
41.38938733326162
 30
0.0
  0
VERTEX
  5
9FA
  8
LAYER_1
 10
-4.409443148189431
 20
41.20302490920673
 30
0.0
  0
VERTEX
  5
9FB
  8
LAYER_1
 10
-4.685850930414176
 20
40.99779009013676
 30
0.0
  0
VERTEX
  5
9FC
  8
LAYER_1
 10
-4.954851059798218
 20
40.77495874942787
 30
0.0
  0
VERTEX
  5
9FD
  8
LAYER_1
 10
-5.215123316540645
 20
40.53580676045623
 30
0.0
  0
VERTEX
  5
9FE
  8
LAYER_1
 10
-5.465347480840548
 20
40.28160999659803
 30
0.0
  0
VERTEX
  5
9FF
  8
LAYER_1
 10
-5.70420333289702
 20
40.01364433122942
 30
0.0
  0
VERTEX
  5
A00
  8
LAYER_1
 10
-5.930370652909152
 20
39.73318563772659
 30
0.0
  0
VERTEX
  5
A01
  8
LAYER_1
 10
-6.142529221076034
 20
39.4415097894657
 30
0.0
  0
VERTEX
  5
A02
  8
LAYER_1
 10
-6.339358817596757
 20
39.13989265982293
 30
0.0
  0
VERTEX
  5
A03
  8
LAYER_1
 10
-6.519539222670414
 20
38.82961012217446
 30
0.0
  0
VERTEX
  5
A04
  8
LAYER_1
 10
-6.681750216496093
 20
38.51193804989645
 30
0.0
  0
VERTEX
  5
A05
  8
LAYER_1
 10
-6.824671579272888
 20
38.18815231636509
 30
0.0
  0
VERTEX
  5
A06
  8
LAYER_1
 10
-7.008732425372619
 20
37.75462577931006
 30
0.0
  0
VERTEX
  5
A07
  8
LAYER_1
 10
-7.156555872577215
 20
37.43649392954839
 30
0.0
  0
VERTEX
  5
A08
  8
LAYER_1
 10
-7.301836908670079
 20
37.13621736738305
 30
0.0
  0
VERTEX
  5
A09
  8
LAYER_1
 10
-7.429398869857467
 20
36.83182266973225
 30
0.0
  0
VERTEX
  5
A0A
  8
LAYER_1
 10
-7.539224518189559
 20
36.52377065155804
 30
0.0
  0
VERTEX
  5
A0B
  8
LAYER_1
 10
-7.631296615716532
 20
36.21252212782248
 30
0.0
  0
VERTEX
  5
A0C
  8
LAYER_1
 10
-7.705597924488563
 20
35.89853791348763
 30
0.0
  0
VERTEX
  5
A0D
  8
LAYER_1
 10
-7.762111206555829
 20
35.58227882351554
 30
0.0
  0
VERTEX
  5
A0E
  8
LAYER_1
 10
-7.800819223968511
 20
35.26420567286827
 30
0.0
  0
VERTEX
  5
A0F
  8
LAYER_1
 10
-7.821704738776784
 20
34.94477927650789
 30
0.0
  0
VERTEX
  5
A10
  8
LAYER_1
 10
-7.824750513030827
 20
34.62446044939645
 30
0.0
  0
VERTEX
  5
A11
  8
LAYER_1
 10
-7.809939308780816
 20
34.30371000649599
 30
0.0
  0
VERTEX
  5
A12
  8
LAYER_1
 10
-7.777253888076932
 20
33.98298876276858
 30
0.0
  0
VERTEX
  5
A13
  8
LAYER_1
 10
-7.72667701296935
 20
33.66275753317629
 30
0.0
  0
VERTEX
  5
A14
  8
LAYER_1
 10
-7.658191445508248
 20
33.34347713268116
 30
0.0
  0
VERTEX
  5
A15
  8
LAYER_1
 10
-7.571779947743805
 20
33.02560837624525
 30
0.0
  0
VERTEX
  5
A16
  8
LAYER_1
 10
-7.467425281726198
 20
32.70961207883062
 30
0.0
  0
VERTEX
  5
A17
  8
LAYER_1
 10
-7.345110209505606
 20
32.39594905539933
 30
0.0
  0
VERTEX
  5
A18
  8
LAYER_1
 10
-7.262807225644683
 20
32.2172215148311
 30
0.0
  0
VERTEX
  5
A19
  8
LAYER_1
 10
-7.156440556870192
 20
32.01204140886609
 30
0.0
  0
VERTEX
  5
A1A
  8
LAYER_1
 10
-6.898120136887915
 20
31.56566789925272
 30
0.0
  0
VERTEX
  5
A1B
  8
LAYER_1
 10
-6.623356894173605
 20
31.14351732357308
 30
0.0
  0
VERTEX
  5
A1C
  8
LAYER_1
 10
-6.496436696984071
 20
30.96861588502524
 30
0.0
  0
VERTEX
  5
A1D
  8
LAYER_1
 10
-6.385358773342091
 20
30.83227847884103
 30
0.0
  0
VERTEX
  5
A1E
  8
LAYER_1
 10
-6.272103459577712
 20
30.69617413959971
 30
0.0
  0
VERTEX
  5
A1F
  8
LAYER_1
 10
-6.224997267127037
 20
30.62202750323942
 30
0.0
  0
VERTEX
  5
A20
  8
LAYER_1
 10
-6.224997267127037
 20
30.59200226135505
 30
0.0
  0
VERTEX
  5
A21
  8
LAYER_1
 10
-6.626448899226787
 20
30.08975320864444
 30
0.0
  0
VERTEX
  5
A22
  8
LAYER_1
 10
-6.923003361480659
 20
29.68743741548511
 30
0.0
  0
VERTEX
  5
A23
  8
LAYER_1
 10
-7.232584240121273
 20
29.2229040385124
 30
0.0
  0
VERTEX
  5
A24
  8
LAYER_1
 10
-7.476234553700752
 20
28.81995928341959
 30
0.0
  0
VERTEX
  5
A25
  8
LAYER_1
 10
-7.548661691890103
 20
28.68027207835731
 30
0.0
  0
VERTEX
  5
A26
  8
LAYER_1
 10
-7.574997320771217
 20
28.60240935589997
 30
0.0
  0
VERTEX
  5
A27
  8
LAYER_1
 10
-7.574997320771217
 20
28.5628510572281
 30
0.0
  0
VERTEX
  5
A28
  8
LAYER_1
 10
-7.845432559382814
 20
28.02517756485773
 30
0.0
  0
VERTEX
  5
A29
  8
LAYER_1
 10
-8.065107555181932
 20
27.57129195238083
 30
0.0
  0
VERTEX
  5
A2A
  8
LAYER_1
 10
-8.247527847979871
 20
27.1544935685628
 30
0.0
  0
VERTEX
  5
A2B
  8
LAYER_1
 10
-8.395175780617063
 20
26.76577203495053
 30
0.0
  0
VERTEX
  5
A2C
  8
LAYER_1
 10
-8.510533695933926
 20
26.39611697309091
 30
0.0
  0
VERTEX
  5
A2D
  8
LAYER_1
 10
-8.596083936770892
 20
26.03651800453082
 30
0.0
  0
VERTEX
  5
A2E
  8
LAYER_1
 10
-8.654308845968387
 20
25.67796475081713
 30
0.0
  0
VERTEX
  5
A2F
  8
LAYER_1
 10
-8.687690766366831
 20
25.31144683349673
 30
0.0
  0
VERTEX
  5
A30
  8
LAYER_1
 10
-8.698712040806654
 20
24.9279538741165
 30
0.0
  0
VERTEX
  5
A31
  8
LAYER_1
 10
-8.693789716185304
 20
24.66465111420414
 30
0.0
  0
VERTEX
  5
A32
  8
LAYER_1
 10
-8.678242056176774
 20
24.40405980641776
 30
0.0
  0
VERTEX
  5
A33
  8
LAYER_1
 10
-8.652241231321954
 20
24.14640455986989
 30
0.0
  0
VERTEX
  5
A34
  8
LAYER_1
 10
-8.615959412161729
 20
23.89190998367305
 30
0.0
  0
VERTEX
  5
A35
  8
LAYER_1
 10
-8.569568769236987
 20
23.64080068693978
 30
0.0
  0
VERTEX
  5
A36
  8
LAYER_1
 10
-8.513241473088613
 20
23.39330127878259
 30
0.0
  0
VERTEX
  5
A37
  8
LAYER_1
 10
-8.447149694257494
 20
23.14963636831402
 30
0.0
  0
VERTEX
  5
A38
  8
LAYER_1
 10
-8.371465603284516
 20
22.91003056464659
 30
0.0
  0
VERTEX
  5
A39
  8
LAYER_1
 10
-8.286361370710566
 20
22.67470847689282
 30
0.0
  0
VERTEX
  5
A3A
  8
LAYER_1
 10
-8.192009167076531
 20
22.44389471416525
 30
0.0
  0
VERTEX
  5
A3B
  8
LAYER_1
 10
-8.088581162923298
 20
22.21781388557639
 30
0.0
  0
VERTEX
  5
A3C
  8
LAYER_1
 10
-7.976249528791753
 20
21.99669060023879
 30
0.0
  0
VERTEX
  5
A3D
  8
LAYER_1
 10
-7.85518643522278
 20
21.78074946726495
 30
0.0
  0
VERTEX
  5
A3E
  8
LAYER_1
 10
-7.725564052757269
 20
21.57021509576741
 30
0.0
  0
VERTEX
  5
A3F
  8
LAYER_1
 10
-7.587554551936105
 20
21.36531209485869
 30
0.0
  0
VERTEX
  5
A40
  8
LAYER_1
 10
-7.441330103300176
 20
21.16626507365132
 30
0.0
  0
VERTEX
  5
A41
  8
LAYER_1
 10
-7.287062877390367
 20
20.97329864125783
 30
0.0
  0
VERTEX
  5
A42
  8
LAYER_1
 10
-7.124925044747565
 20
20.78663740679075
 30
0.0
  0
VERTEX
  5
A43
  8
LAYER_1
 10
-6.955088775912657
 20
20.60650597936259
 30
0.0
  0
VERTEX
  5
A44
  8
LAYER_1
 10
-6.777726241426528
 20
20.43312896808589
 30
0.0
  0
VERTEX
  5
A45
  8
LAYER_1
 10
-6.593009611830066
 20
20.26673098207317
 30
0.0
  0
VERTEX
  5
A46
  8
LAYER_1
 10
-6.401111057664157
 20
20.10753663043696
 30
0.0
  0
VERTEX
  5
A47
  8
LAYER_1
 10
-6.202202749469688
 20
19.95577052228979
 30
0.0
  0
VERTEX
  5
A48
  8
LAYER_1
 10
-5.996456857787545
 20
19.81165726674418
 30
0.0
  0
VERTEX
  5
A49
  8
LAYER_1
 10
-5.784045553158615
 20
19.67542147291265
 30
0.0
  0
VERTEX
  5
A4A
  8
LAYER_1
 10
-5.565141006123785
 20
19.54728774990774
 30
0.0
  0
VERTEX
  5
A4B
  8
LAYER_1
 10
-5.33991538722394
 20
19.42748070684197
 30
0.0
  0
VERTEX
  5
A4C
  8
LAYER_1
 10
-5.108540866999968
 20
19.31622495282786
 30
0.0
  0
VERTEX
  5
A4D
  8
LAYER_1
 10
-4.871189615992756
 20
19.21374509697795
 30
0.0
  0
VERTEX
  5
A4E
  8
LAYER_1
 10
-4.628033804743188
 20
19.12026574840475
 30
0.0
  0
VERTEX
  5
A4F
  8
LAYER_1
 10
-4.379245603792151
 20
19.0360115162208
 30
0.0
  0
VERTEX
  5
A50
  8
LAYER_1
 10
-4.124997183680534
 20
18.96120700953863
 30
0.0
  0
VERTEX
  5
A51
  8
LAYER_1
 10
-3.769707220934506
 20
18.87570360032638
 30
0.0
  0
VERTEX
  5
A52
  8
LAYER_1
 10
-3.600408232876569
 20
18.84545217264375
 30
0.0
  0
VERTEX
  5
A53
  8
LAYER_1
 10
-3.427094036873951
 20
18.82247779368727
 30
0.0
  0
VERTEX
  5
A54
  8
LAYER_1
 10
-3.039682410570469
 20
18.79519077428429
 30
0.0
  0
VERTEX
  5
A55
  8
LAYER_1
 10
-2.549997121095657
 20
18.78750372678041
 30
0.0
  0
VERTEX
  5
A56
  8
LAYER_1
 10
-2.294333026661456
 20
18.79117230017389
 30
0.0
  0
VERTEX
  5
A57
  8
LAYER_1
 10
-2.04696889507919
 20
18.80233665804481
 30
0.0
  0
VERTEX
  5
A58
  8
LAYER_1
 10
-1.807136208185723
 20
18.82123475692889
 30
0.0
  0
VERTEX
  5
A59
  8
LAYER_1
 10
-1.57406644781792
 20
18.84810455336187
 30
0.0
  0
VERTEX
  5
A5A
  8
LAYER_1
 10
-1.346991095812646
 20
18.88318400387947
 30
0.0
  0
VERTEX
  5
A5B
  8
LAYER_1
 10
-1.125141634006765
 20
18.92671106501742
 30
0.0
  0
VERTEX
  5
A5C
  8
LAYER_1
 10
-0.9077495442371406
 20
18.97892369331144
 30
0.0
  0
VERTEX
  5
A5D
  8
LAYER_1
 10
-0.6940463083406385
 20
19.04005984529728
 30
0.0
  0
VERTEX
  5
A5E
  8
LAYER_1
 10
-0.4832634081541227
 20
19.11035747751064
 30
0.0
  0
VERTEX
  5
A5F
  8
LAYER_1
 10
-0.2746323255144575
 20
19.19005454648726
 30
0.0
  0
VERTEX
  5
A60
  8
LAYER_1
 10
-0.0673845422585076
 20
19.27938900876287
 30
0.0
  0
VERTEX
  5
A61
  8
LAYER_1
 10
0.1392484597768626
 20
19.3785988208732
 30
0.0
  0
VERTEX
  5
A62
  8
LAYER_1
 10
0.3460351987547887
 20
19.48792193935397
 30
0.0
  0
VERTEX
  5
A63
  8
LAYER_1
 10
0.5537441928384064
 20
19.6075963207409
 30
0.0
  0
VERTEX
  5
A64
  8
LAYER_1
 10
0.7631439601908508
 20
19.73785992156974
 30
0.0
  0
VERTEX
  5
A65
  8
LAYER_1
 10
0.9750030189752579
 20
19.8789506983762
 30
0.0
  0
VERTEX
  5
A66
  8
LAYER_1
 10
1.387503035366535
 20
20.16236866787192
 30
0.0
  0
VERTEX
  5
A67
  8
LAYER_1
 10
2.962503097951412
 20
21.75852583140365
 30
0.0
  0
VERTEX
  5
A68
  8
LAYER_1
 10
3.487503118813038
 20
21.71395887272472
 30
0.0
  0
VERTEX
  5
A69
  8
LAYER_1
 10
4.650003165006638
 20
21.5998142086268
 30
0.0
  0
VERTEX
  5
A6A
  8
LAYER_1
 10
5.287503190338612
 20
21.53023650320779
 30
0.0
  0
VERTEX
  5
A6B
  8
LAYER_1
 10
6.56250324100256
 20
21.41156090448204
 30
0.0
  0
VERTEX
  5
A6C
  8
LAYER_1
 10
8.850003331899643
 20
21.18630180037255
 30
0.0
  0
VERTEX
  5
A6D
  8
LAYER_1
 10
11.02500341832638
 20
20.96785778902024
 30
0.0
  0
VERTEX
  5
A6E
  8
LAYER_1
 10
13.68750352412462
 20
20.70545574967879
 30
0.0
  0
VERTEX
  5
A6F
  8
LAYER_1
 10
15.18750358372927
 20
20.5549142163059
 30
0.0
  0
VERTEX
  5
A70
  8
LAYER_1
 10
15.97500361502171
 20
20.47459404042242
 30
0.0
  0
VERTEX
  5
A71
  8
LAYER_1
 10
17.40000367164612
 20
20.32495626952247
 30
0.0
  0
VERTEX
  5
A72
  8
LAYER_1
 10
18.48750371485949
 20
20.21547793868081
 30
0.0
  0
VERTEX
  5
A73
  8
LAYER_1
 10
18.93750373274088
 20
20.17531720285558
 30
0.0
  0
VERTEX
  5
A74
  8
LAYER_1
 10
22.83750388771296
 20
19.80135885271859
 30
0.0
  0
VERTEX
  5
A75
  8
LAYER_1
 10
23.58750391751528
 20
19.72227145949915
 30
0.0
  0
VERTEX
  5
A76
  8
LAYER_1
 10
24.97500397264957
 20
19.57305967561817
 30
0.0
  0
VERTEX
  5
A77
  8
LAYER_1
 10
26.51250403374434
 20
19.42295752802582
 30
0.0
  0
VERTEX
  5
A78
  8
LAYER_1
 10
27.41250406950712
 20
19.34297977109507
 30
0.0
  0
VERTEX
  5
A79
  8
LAYER_1
 10
27.64992016280092
 20
19.3018331907252
 30
0.0
  0
VERTEX
  5
A7A
  8
LAYER_1
 10
27.76179133503731
 20
19.27288976322839
 30
0.0
  0
VERTEX
  5
A7B
  8
LAYER_1
 10
27.84336574505171
 20
19.22829311856517
 30
0.0
  0
VERTEX
  5
A7C
  8
LAYER_1
 10
27.87415697816781
 20
19.19904733750178
 30
0.0
  0
VERTEX
  5
A7D
  8
LAYER_1
 10
27.899012397459
 20
19.16459524939352
 30
0.0
  0
VERTEX
  5
A7E
  8
LAYER_1
 10
27.93310029687407
 20
19.07834814837142
 30
0.0
  0
VERTEX
  5
A7F
  8
LAYER_1
 10
27.97831467887685
 20
18.93007054731875
 30
0.0
  0
VERTEX
  5
A80
  8
LAYER_1
 10
28.04456125090482
 20
18.75716737156446
 30
0.0
  0
VERTEX
  5
A81
  8
LAYER_1
 10
28.12843272751733
 20
18.56636180743962
 30
0.0
  0
VERTEX
  5
A82
  8
LAYER_1
 10
28.22652182327369
 20
18.36437704127535
 30
0.0
  0
VERTEX
  5
A83
  8
LAYER_1
 10
28.33542125273323
 20
18.15793625940274
 30
0.0
  0
VERTEX
  5
A84
  8
LAYER_1
 10
28.45172373045528
 20
17.95376264815287
 30
0.0
  0
VERTEX
  5
A85
  8
LAYER_1
 10
28.57202197099916
 20
17.75857939385686
 30
0.0
  0
VERTEX
  5
A86
  8
LAYER_1
 10
28.69290868892419
 20
17.57910968284578
 30
0.0
  0
VERTEX
  5
A87
  8
LAYER_1
 10
28.86512191110918
 20
17.3503327579396
 30
0.0
  0
VERTEX
  5
A88
  8
LAYER_1
 10
29.05255846851912
 20
17.12789077872583
 30
0.0
  0
VERTEX
  5
A89
  8
LAYER_1
 10
29.25409200601394
 20
16.91249665359089
 30
0.0
  0
VERTEX
  5
A8A
  8
LAYER_1
 10
29.46859616845357
 20
16.70486329092117
 30
0.0
  0
VERTEX
  5
A8B
  8
LAYER_1
 10
29.69494460069794
 20
16.50570359910308
 30
0.0
  0
VERTEX
  5
A8C
  8
LAYER_1
 10
29.93201094760696
 20
16.31573048652304
 30
0.0
  0
VERTEX
  5
A8D
  8
LAYER_1
 10
30.17866885404057
 20
16.13565686156743
 30
0.0
  0
VERTEX
  5
A8E
  8
LAYER_1
 10
30.4337919648587
 20
15.96619563262269
 30
0.0
  0
VERTEX
  5
A8F
  8
LAYER_1
 10
30.69625392492127
 20
15.8080597080752
 30
0.0
  0
VERTEX
  5
A90
  8
LAYER_1
 10
30.9649283790882
 20
15.66196199631138
 30
0.0
  0
VERTEX
  5
A91
  8
LAYER_1
 10
31.23868897221943
 20
15.52861540571762
 30
0.0
  0
VERTEX
  5
A92
  8
LAYER_1
 10
31.51640934917488
 20
15.40873284468034
 30
0.0
  0
VERTEX
  5
A93
  8
LAYER_1
 10
31.79696315481448
 20
15.30302722158594
 30
0.0
  0
VERTEX
  5
A94
  8
LAYER_1
 10
32.07922403399814
 20
15.21221144482082
 30
0.0
  0
VERTEX
  5
A95
  8
LAYER_1
 10
32.36206563158582
 20
15.1369984227714
 30
0.0
  0
SEQEND
  5
D88
  8
LAYER_1
  0
POLYLINE
  5
78
  8
LAYER_1
 66
     1
 10
0.0
 20
0.0
 30
0.0
 70
     1
  0
VERTEX
  5
A96
  8
LAYER_1
 10
-48.79014492256869
 20
33.48549548641115
 30
0.0
  0
VERTEX
  5
A97
  8
LAYER_1
 10
-48.63120738177246
 20
33.44782067006271
 30
0.0
  0
VERTEX
  5
A98
  8
LAYER_1
 10
-48.42218244583353
 20
33.41595637415591
 30
0.0
  0
VERTEX
  5
A99
  8
LAYER_1
 10
-48.19022724902658
 20
33.39326248680903
 30
0.0
  0
VERTEX
  5
A9A
  8
LAYER_1
 10
-47.96249892562628
 20
33.38309889614032
 30
0.0
  0
VERTEX
  5
A9B
  8
LAYER_1
 10
-47.72080734066188
 20
33.39041348103218
 30
0.0
  0
VERTEX
  5
A9C
  8
LAYER_1
 10
-47.44060568271771
 20
33.41843467061299
 30
0.0
  0
VERTEX
  5
A9D
  8
LAYER_1
 10
-47.11942635532911
 20
33.46768542892337
 30
0.0
  0
VERTEX
  5
A9E
  8
LAYER_1
 10
-46.75480176203143
 20
33.53868872000399
 30
0.0
  0
VERTEX
  5
A9F
  8
LAYER_1
 10
-46.34426430636
 20
33.63196750789547
 30
0.0
  0
VERTEX
  5
AA0
  8
LAYER_1
 10
-45.88534639185013
 20
33.74804475663844
 30
0.0
  0
VERTEX
  5
AA1
  8
LAYER_1
 10
-45.3755804220372
 20
33.88744343027356
 30
0.0
  0
VERTEX
  5
AA2
  8
LAYER_1
 10
-44.81249880045652
 20
34.05068649284146
 30
0.0
  0
VERTEX
  5
AA3
  8
LAYER_1
 10
-43.68110617281293
 20
34.38442872987521
 30
0.0
  0
VERTEX
  5
AA4
  8
LAYER_1
 10
-42.91307129462963
 20
34.60436436488311
 30
0.0
  0
VERTEX
  5
AA5
  8
LAYER_1
 10
-42.38260667922256
 20
34.74546776057431
 30
0.0
  0
VERTEX
  5
AA6
  8
LAYER_1
 10
-41.96392483990765
 20
34.84271327965797
 30
0.0
  0
VERTEX
  5
AA7
  8
LAYER_1
 10
-41.44035097174598
 20
34.95522989480025
 30
0.0
  0
VERTEX
  5
AA8
  8
LAYER_1
 10
-40.31392477434255
 20
35.10495662940895
 30
0.0
  0
VERTEX
  5
AA9
  8
LAYER_1
 10
-39.20994876017016
 20
35.23436668875054
 30
0.0
  0
VERTEX
  5
AAA
  8
LAYER_1
 10
-38.13749853521585
 20
35.33524694878092
 30
0.0
  0
VERTEX
  5
AAB
  8
LAYER_1
 10
-37.0874984934926
 20
35.41581053354423
 30
0.0
  0
VERTEX
  5
AAC
  8
LAYER_1
 10
-34.38749838620424
 20
35.37533506775009
 30
0.0
  0
VERTEX
  5
AAD
  8
LAYER_1
 10
-33.16455888448399
 20
35.34758408242664
 30
0.0
  0
VERTEX
  5
AAE
  8
LAYER_1
 10
-31.83070140960626
 20
35.30194525570295
 30
0.0
  0
VERTEX
  5
AAF
  8
LAYER_1
 10
-30.54711737422622
 20
35.24475139252876
 30
0.0
  0
VERTEX
  5
AB0
  8
LAYER_1
 10
-29.47499819099903
 20
35.18233529785377
 30
0.0
  0
VERTEX
  5
AB1
  8
LAYER_1
 10
-25.40366511063266
 20
34.90219228585184
 30
0.0
  0
VERTEX
  5
AB2
  8
LAYER_1
 10
-23.54483211818313
 20
34.77457357795205
 30
0.0
  0
VERTEX
  5
AB3
  8
LAYER_1
 10
-23.34116502867627
 20
34.92243693782534
 30
0.0
  0
VERTEX
  5
AB4
  8
LAYER_1
 10
-23.24903187447092
 20
35.00617279488711
 30
0.0
  0
VERTEX
  5
AB5
  8
LAYER_1
 10
-23.14873164341978
 20
35.12486103830734
 30
0.0
  0
VERTEX
  5
AB6
  8
LAYER_1
 10
-23.05237515960547
 20
35.26270358428168
 30
0.0
  0
VERTEX
  5
AB7
  8
LAYER_1
 10
-22.97207324711062
 20
35.40390234900576
 30
0.0
  0
VERTEX
  5
AB8
  8
LAYER_1
 10
-22.89806217461172
 20
35.58379291100852
 30
0.0
  0
VERTEX
  5
AB9
  8
LAYER_1
 10
-22.81524675575433
 20
35.83801251289711
 30
0.0
  0
VERTEX
  5
ABA
  8
LAYER_1
 10
-22.72685911422248
 20
36.15299327114769
 30
0.0
  0
VERTEX
  5
ABB
  8
LAYER_1
 10
-22.63613137370019
 20
36.51516730223643
 30
0.0
  0
VERTEX
  5
ABC
  8
LAYER_1
 10
-22.54629565787151
 20
36.91096672263945
 30
0.0
  0
VERTEX
  5
ABD
  8
LAYER_1
 10
-22.46058409042045
 20
37.3268236488329
 30
0.0
  0
VERTEX
  5
ABE
  8
LAYER_1
 10
-22.38222879503106
 20
37.74917019729294
 30
0.0
  0
VERTEX
  5
ABF
  8
LAYER_1
 10
-22.31446189538737
 20
38.16443848449572
 30
0.0
  0
VERTEX
  5
AC0
  8
LAYER_1
 10
-22.20862992677025
 20
38.86637250013321
 30
0.0
  0
VERTEX
  5
AC1
  8
LAYER_1
 10
-22.14228570921037
 20
38.93271671769109
 30
0.0
  0
VERTEX
  5
AC2
  8
LAYER_1
 10
-20.23989172882246
 20
39.41955219859423
 30
0.0
  0
VERTEX
  5
AC3
  8
LAYER_1
 10
-18.33452908284969
 20
39.89327948241809
 30
0.0
  0
VERTEX
  5
AC4
  8
LAYER_1
 10
-16.42499767243862
 20
40.34859951076893
 30
0.0
  0
VERTEX
  5
AC5
  8
LAYER_1
 10
-14.5124975964427
 20
40.79081134204048
 30
0.0
  0
VERTEX
  5
AC6
  8
LAYER_1
 10
-13.83749756962061
 20
40.91259976308092
 30
0.0
  0
VERTEX
  5
AC7
  8
LAYER_1
 10
-12.98210545827736
 20
41.07568792157414
 30
0.0
  0
VERTEX
  5
AC8
  8
LAYER_1
 10
-12.60982748204338
 20
41.15505402263959
 30
0.0
  0
VERTEX
  5
AC9
  8
LAYER_1
 10
-12.26987333564985
 20
41.23491923094333
 30
0.0
  0
VERTEX
  5
ACA
  8
LAYER_1
 10
-11.95877685175829
 20
41.31674686600468
 30
0.0
  0
VERTEX
  5
ACB
  8
LAYER_1
 10
-11.67307186303024
 20
41.40200024734296
 30
0.0
  0
VERTEX
  5
ACC
  8
LAYER_1
 10
-11.4092922021272
 20
41.49214269447747
 30
0.0
  0
VERTEX
  5
ACD
  8
LAYER_1
 10
-11.16397170171071
 20
41.58863752692753
 30
0.0
  0
VERTEX
  5
ACE
  8
LAYER_1
 10
-10.93364419444228
 20
41.69294806421244
 30
0.0
  0
VERTEX
  5
ACF
  8
LAYER_1
 10
-10.71484351298345
 20
41.8065376258515
 30
0.0
  0
VERTEX
  5
AD0
  8
LAYER_1
 10
-10.50410348999572
 20
41.93086953136405
 30
0.0
  0
VERTEX
  5
AD1
  8
LAYER_1
 10
-10.29795795814062
 20
42.06740710026938
 30
0.0
  0
VERTEX
  5
AD2
  8
LAYER_1
 10
-10.09294075007969
 20
42.2176136520868
 30
0.0
  0
VERTEX
  5
AD3
  8
LAYER_1
 10
-9.885585698474424
 20
42.38295250633562
 30
0.0
  0
VERTEX
  5
AD4
  8
LAYER_1
 10
-9.449997395277023
 20
42.76488040020472
 30
0.0
  0
VERTEX
  5
AD5
  8
LAYER_1
 10
-9.0148859522029
 20
43.1700533015514
 30
0.0
  0
VERTEX
  5
AD6
  8
LAYER_1
 10
-8.597996220331023
 20
43.57009128079847
 30
0.0
  0
VERTEX
  5
AD7
  8
LAYER_1
 10
-8.197755788439508
 20
43.9666339300683
 30
0.0
  0
VERTEX
  5
AD8
  8
LAYER_1
 10
-7.812592245306471
 20
44.36132084148324
 30
0.0
  0
VERTEX
  5
AD9
  8
LAYER_1
 10
-7.440933179710022
 20
44.75579160716569
 30
0.0
  0
VERTEX
  5
ADA
  8
LAYER_1
 10
-7.08120618042828
 20
45.151685819238
 30
0.0
  0
VERTEX
  5
ADB
  8
LAYER_1
 10
-6.731838836239358
 20
45.55064306982256
 30
0.0
  0
VERTEX
  5
ADC
  8
LAYER_1
 10
-6.391258735921369
 20
45.95430295104173
 30
0.0
  0
VERTEX
  5
ADD
  8
LAYER_1
 10
-5.631967596807684
 20
46.87110113222177
 30
0.0
  0
VERTEX
  5
ADE
  8
LAYER_1
 10
-5.515982415576076
 20
47.26166559504958
 30
0.0
  0
VERTEX
  5
ADF
  8
LAYER_1
 10
-5.463879694253644
 20
47.47650362318392
 30
0.0
  0
VERTEX
  5
AE0
  8
LAYER_1
 10
-5.42782601129573
 20
47.71000540486521
 30
0.0
  0
VERTEX
  5
AE1
  8
LAYER_1
 10
-5.4076952639161
 20
47.95348825162738
 30
0.0
  0
VERTEX
  5
AE2
  8
LAYER_1
 10
-5.403361349328522
 20
48.19826947500425
 30
0.0
  0
VERTEX
  5
AE3
  8
LAYER_1
 10
-5.414698164746763
 20
48.43566638652973
 30
0.0
  0
VERTEX
  5
AE4
  8
LAYER_1
 10
-5.441579607384591
 20
48.65699629773771
 30
0.0
  0
VERTEX
  5
AE5
  8
LAYER_1
 10
-5.483879574455772
 20
48.85357652016204
 30
0.0
  0
VERTEX
  5
AE6
  8
LAYER_1
 10
-5.541471963174075
 20
49.01672436533661
 30
0.0
  0
VERTEX
  5
AE7
  8
LAYER_1
 10
-5.622281633942658
 20
49.1581860093895
 30
0.0
  0
VERTEX
  5
AE8
  8
LAYER_1
 10
-5.740160477597529
 20
49.31846489523564
 30
0.0
  0
VERTEX
  5
AE9
  8
LAYER_1
 10
-5.879281521585882
 20
49.47787352209274
 30
0.0
  0
VERTEX
  5
AEA
  8
LAYER_1
 10
-6.023817793354908
 20
49.61672438917847
 30
0.0
  0
VERTEX
  5
AEB
  8
LAYER_1
 10
-6.367983194910678
 20
49.91250496357679
 30
0.0
  0
VERTEX
  5
AEC
  8
LAYER_1
 10
-6.074857665375731
 20
53.51250510662794
 30
0.0
  0
VERTEX
  5
AED
  8
LAYER_1
 10
-6.000181789689734
 20
54.52500514686108
 30
0.0
  0
VERTEX
  5
AEE
  8
LAYER_1
 10
-5.853040410571849
 20
56.40819752436877
 30
0.0
  0
VERTEX
  5
AEF
  8
LAYER_1
 10
-5.695764650420259
 20
58.20000529289246
 30
0.0
  0
VERTEX
  5
AF0
  8
LAYER_1
 10
-5.650092901638613
 20
58.80945554577208
 30
0.0
  0
VERTEX
  5
AF1
  8
LAYER_1
 10
-5.634615418461069
 20
59.34937453880291
 30
0.0
  0
VERTEX
  5
AF2
  8
LAYER_1
 10
-5.638768383226977
 20
59.5967302271693
 30
0.0
  0
VERTEX
  5
AF3
  8
LAYER_1
 10
-5.65115254249768
 20
59.83086759772665
 30
0.0
  0
VERTEX
  5
AF4
  8
LAYER_1
 10
-5.671995438974436
 20
60.05317481619268
 30
0.0
  0
VERTEX
  5
AF5
  8
LAYER_1
 10
-5.701524615358499
 20
60.26504004828509
 30
0.0
  0
VERTEX
  5
AF6
  8
LAYER_1
 10
-5.73996761435113
 20
60.4678514597216
 30
0.0
  0
VERTEX
  5
AF7
  8
LAYER_1
 10
-5.787551978653583
 20
60.66299721621994
 30
0.0
  0
VERTEX
  5
AF8
  8
LAYER_1
 10
-5.844505250967116
 20
60.85186548349781
 30
0.0
  0
VERTEX
  5
AF9
  8
LAYER_1
 10
-5.911054973992985
 20
61.03584442727296
 30
0.0
  0
VERTEX
  5
AFA
  8
LAYER_1
 10
-5.987428690432447
 20
61.21632221326308
 30
0.0
  0
VERTEX
  5
AFB
  8
LAYER_1
 10
-6.073853942986759
 20
61.39468700718589
 30
0.0
  0
VERTEX
  5
AFC
  8
LAYER_1
 10
-6.170558274357178
 20
61.57232697475912
 30
0.0
  0
VERTEX
  5
AFD
  8
LAYER_1
 10
-6.27776922724496
 20
61.7506302817005
 30
0.0
  0
VERTEX
  5
AFE
  8
LAYER_1
 10
-6.39109759133561
 20
61.92227310982383
 30
0.0
  0
VERTEX
  5
AFF
  8
LAYER_1
 10
-6.514542699673292
 20
62.09261243311646
 30
0.0
  0
VERTEX
  5
B00
  8
LAYER_1
 10
-6.648082438464396
 20
62.26163585465142
 30
0.0
  0
VERTEX
  5
B01
  8
LAYER_1
 10
-6.791694693915311
 20
62.42933097750181
 30
0.0
  0
VERTEX
  5
B02
  8
LAYER_1
 10
-6.945357352232425
 20
62.59568540474069
 30
0.0
  0
VERTEX
  5
B03
  8
LAYER_1
 10
-7.109048299622128
 20
62.76068673944115
 30
0.0
  0
VERTEX
  5
B04
  8
LAYER_1
 10
-7.282745422290808
 20
62.92432258467624
 30
0.0
  0
VERTEX
  5
B05
  8
LAYER_1
 10
-7.466426606444855
 20
63.08658054351904
 30
0.0
  0
VERTEX
  5
B06
  8
LAYER_1
 10
-7.863652704034607
 20
63.40691321432008
 30
0.0
  0
VERTEX
  5
B07
  8
LAYER_1
 10
-8.300549682042494
 20
63.72158557642886
 30
0.0
  0
VERTEX
  5
B08
  8
LAYER_1
 10
-8.776940630119629
 20
64.03049845442996
 30
0.0
  0
VERTEX
  5
B09
  8
LAYER_1
 10
-9.292648637917127
 20
64.33355267290793
 30
0.0
  0
VERTEX
  5
B0A
  8
LAYER_1
 10
-9.847496795086098
 20
64.6306490564474
 30
0.0
  0
VERTEX
  5
B0B
  8
LAYER_1
 10
-10.44130819127766
 20
64.92168842963292
 30
0.0
  0
VERTEX
  5
B0C
  8
LAYER_1
 10
-11.07390591614291
 20
65.2065716170491
 30
0.0
  0
VERTEX
  5
B0D
  8
LAYER_1
 10
-11.74511305933298
 20
65.4851994432805
 30
0.0
  0
VERTEX
  5
B0E
  8
LAYER_1
 10
-12.45475271049898
 20
65.7574727329117
 30
0.0
  0
VERTEX
  5
B0F
  8
LAYER_1
 10
-13.202647959292
 20
66.0232923105273
 30
0.0
  0
VERTEX
  5
B10
  8
LAYER_1
 10
-13.98862189536318
 20
66.28255900071187
 30
0.0
  0
VERTEX
  5
B11
  8
LAYER_1
 10
-14.81249760836363
 20
66.53517362804999
 30
0.0
  0
VERTEX
  5
B12
  8
LAYER_1
 10
-16.08749765902758
 20
66.91226549898437
 30
0.0
  0
VERTEX
  5
B13
  8
LAYER_1
 10
-17.03311190068488
 20
67.1946233758542
 30
0.0
  0
VERTEX
  5
B14
  8
LAYER_1
 10
-18.06030483946087
 20
67.42021215573348
 30
0.0
  0
VERTEX
  5
B15
  8
LAYER_1
 10
-20.09999781847
 20
67.86713223029284
 30
0.0
  0
VERTEX
  5
B16
  8
LAYER_1
 10
-20.53533558906025
 20
67.95721745886777
 30
0.0
  0
VERTEX
  5
B17
  8
LAYER_1
 10
-21.05100863900359
 20
68.05511731062884
 30
0.0
  0
VERTEX
  5
B18
  8
LAYER_1
 10
-22.27821130666723
 20
68.26696090469144
 30
0.0
  0
VERTEX
  5
B19
  8
LAYER_1
 10
-23.6913072808962
 20
68.48786305444474
 30
0.0
  0
VERTEX
  5
B1A
  8
LAYER_1
 10
-25.19999802112579
 20
68.70302380185294
 30
0.0
  0
VERTEX
  5
B1B
  8
LAYER_1
 10
-26.36249806731939
 20
68.8609470220967
 30
0.0
  0
VERTEX
  5
B1C
  8
LAYER_1
 10
-27.41249810904264
 20
68.99529838356275
 30
0.0
  0
VERTEX
  5
B1D
  8
LAYER_1
 10
-28.91249816864729
 20
69.10889847752071
 30
0.0
  0
VERTEX
  5
B1E
  8
LAYER_1
 10
-30.33376948838229
 20
69.20801101006688
 30
0.0
  0
VERTEX
  5
B1F
  8
LAYER_1
 10
-31.65730037622586
 20
69.28111507978653
 30
0.0
  0
VERTEX
  5
B20
  8
LAYER_1
 10
-32.91729000242954
 20
69.32846683389803
 30
0.0
  0
VERTEX
  5
B21
  8
LAYER_1
 10
-34.14793753724484
 20
69.35032241961972
 30
0.0
  0
VERTEX
  5
B22
  8
LAYER_1
 10
-35.38344215092329
 20
69.34693798416997
 30
0.0
  0
VERTEX
  5
B23
  8
LAYER_1
 10
-36.65800301371642
 20
69.31856967476715
 30
0.0
  0
VERTEX
  5
B24
  8
LAYER_1
 10
-38.00581929587574
 20
69.2654736386296
 30
0.0
  0
VERTEX
  5
B25
  8
LAYER_1
 10
-39.46109016765278
 20
69.18790602297571
 30
0.0
  0
VERTEX
  5
B26
  8
LAYER_1
 10
-41.36249866336584
 20
69.07570472864103
 30
0.0
  0
VERTEX
  5
B27
  8
LAYER_1
 10
-43.46249874681234
 20
68.91828164878925
 30
0.0
  0
VERTEX
  5
B28
  8
LAYER_1
 10
-47.36249890178442
 20
68.46565692998391
 30
0.0
  0
VERTEX
  5
B29
  8
LAYER_1
 10
-49.61249899119139
 20
68.08907041808425
 30
0.0
  0
VERTEX
  5
B2A
  8
LAYER_1
 10
-52.91249912232161
 20
67.3575675091571
 30
0.0
  0
VERTEX
  5
B2B
  8
LAYER_1
 10
-53.84999915957451
 20
67.08639491597367
 30
0.0
  0
VERTEX
  5
B2C
  8
LAYER_1
 10
-55.11141392025193
 20
66.71092853453231
 30
0.0
  0
VERTEX
  5
B2D
  8
LAYER_1
 10
-56.21250269027013
 20
66.35742515534422
 30
0.0
  0
VERTEX
  5
B2E
  8
LAYER_1
 10
-57.257339739644
 20
65.9909677302682
 30
0.0
  0
VERTEX
  5
B2F
  8
LAYER_1
 10
-58.34999933838844
 20
65.57663921116304
 30
0.0
  0
VERTEX
  5
B30
  8
LAYER_1
 10
-58.89889391206356
 20
65.35085280890982
 30
0.0
  0
VERTEX
  5
B31
  8
LAYER_1
 10
-59.4979988155653
 20
65.08447387294521
 30
0.0
  0
VERTEX
  5
B32
  8
LAYER_1
 10
-60.12683109104059
 20
64.7879006186903
 30
0.0
  0
VERTEX
  5
B33
  8
LAYER_1
 10
-60.76490778063636
 20
64.47153126156621
 30
0.0
  0
VERTEX
  5
B34
  8
LAYER_1
 10
-61.39174592649955
 20
64.14576401699404
 30
0.0
  0
VERTEX
  5
B35
  8
LAYER_1
 10
-61.98686257077708
 20
63.8209971003949
 30
0.0
  0
VERTEX
  5
B36
  8
LAYER_1
 10
-62.52977475561586
 20
63.50762872718991
 30
0.0
  0
VERTEX
  5
B37
  8
LAYER_1
 10
-62.99999952316284
 20
63.21605711280017
 30
0.0
  0
VERTEX
  5
B38
  8
LAYER_1
 10
-63.63749954849482
 20
62.80224569964625
 30
0.0
  0
VERTEX
  5
B39
  8
LAYER_1
 10
-63.75180663073164
 20
62.69487558344116
 30
0.0
  0
VERTEX
  5
B3A
  8
LAYER_1
 10
-64.34953344500937
 20
62.17500545084476
 30
0.0
  0
VERTEX
  5
B3B
  8
LAYER_1
 10
-64.56369267310936
 20
61.98758211900447
 30
0.0
  0
VERTEX
  5
B3C
  8
LAYER_1
 10
-64.76592531908028
 20
61.80083743943619
 30
0.0
  0
VERTEX
  5
B3D
  8
LAYER_1
 10
-64.95656135384893
 20
61.61428897447946
 30
0.0
  0
VERTEX
  5
B3E
  8
LAYER_1
 10
-65.13593074834215
 20
61.42745428647383
 30
0.0
  0
VERTEX
  5
B3F
  8
LAYER_1
 10
-65.30436347348676
 20
61.23985093775883
 30
0.0
  0
VERTEX
  5
B40
  8
LAYER_1
 10
-65.46218950020959
 20
61.05099649067401
 30
0.0
  0
VERTEX
  5
B41
  8
LAYER_1
 10
-65.60973879943747
 20
60.86040850755892
 30
0.0
  0
VERTEX
  5
B42
  8
LAYER_1
 10
-65.74734134209723
 20
60.66760455075308
 30
0.0
  0
VERTEX
  5
B43
  8
LAYER_1
 10
-65.87532709911571
 20
60.47210218259605
 30
0.0
  0
VERTEX
  5
B44
  8
LAYER_1
 10
-65.99402604141974
 20
60.27341896542737
 30
0.0
  0
VERTEX
  5
B45
  8
LAYER_1
 10
-66.10376813993612
 20
60.07107246158657
 30
0.0
  0
VERTEX
  5
B46
  8
LAYER_1
 10
-66.20488336559171
 20
59.8645802334132
 30
0.0
  0
VERTEX
  5
B47
  8
LAYER_1
 10
-66.29770168931334
 20
59.65345984324681
 30
0.0
  0
VERTEX
  5
B48
  8
LAYER_1
 10
-66.38255308202784
 20
59.43722885342693
 30
0.0
  0
VERTEX
  5
B49
  8
LAYER_1
 10
-66.45976751466202
 20
59.21540482629311
 30
0.0
  0
VERTEX
  5
B4A
  8
LAYER_1
 10
-66.52967495814272
 20
58.98750532418489
 30
0.0
  0
VERTEX
  5
B4B
  8
LAYER_1
 10
-66.58047725089469
 20
58.801961086628
 30
0.0
  0
VERTEX
  5
B4C
  8
LAYER_1
 10
-66.62003591436056
 20
58.63206069507746
 30
0.0
  0
VERTEX
  5
B4D
  8
LAYER_1
 10
-66.64952911933172
 20
58.46434568776098
 30
0.0
  0
VERTEX
  5
B4E
  8
LAYER_1
 10
-66.67013503659956
 20
58.28535760290627
 30
0.0
  0
VERTEX
  5
B4F
  8
LAYER_1
 10
-66.68303183695548
 20
58.08163797874104
 30
0.0
  0
VERTEX
  5
B50
  8
LAYER_1
 10
-66.68939769119083
 20
57.839728353493
 30
0.0
  0
VERTEX
  5
B51
  8
LAYER_1
 10
-66.68724924446549
 20
57.18750525265932
 30
0.0
  0
VERTEX
  5
B52
  8
LAYER_1
 10
-66.67252279203376
 20
55.98750520497561
 30
0.0
  0
VERTEX
  5
B53
  8
LAYER_1
 10
-67.14251124924044
 20
55.80733004651913
 30
0.0
  0
VERTEX
  5
B54
  8
LAYER_1
 10
-67.35266602755593
 20
55.72241995284227
 30
0.0
  0
VERTEX
  5
B55
  8
LAYER_1
 10
-67.56590116297807
 20
55.62780589903795
 30
0.0
  0
VERTEX
  5
B56
  8
LAYER_1
 10
-67.99819091505242
 20
55.41177901968848
 30
0.0
  0
VERTEX
  5
B57
  8
LAYER_1
 10
-68.43253732528369
 20
55.16387562575373
 30
0.0
  0
VERTEX
  5
B58
  8
LAYER_1
 10
-68.86209721349205
 20
54.88872193451675
 30
0.0
  0
VERTEX
  5
B59
  8
LAYER_1
 10
-69.28002739949765
 20
54.59094416326057
 30
0.0
  0
VERTEX
  5
B5A
  8
LAYER_1
 10
-69.67948470312069
 20
54.27516852926824
 30
0.0
  0
VERTEX
  5
B5B
  8
LAYER_1
 10
-70.05362594418132
 20
53.94602124982278
 30
0.0
  0
VERTEX
  5
B5C
  8
LAYER_1
 10
-70.39560794249974
 20
53.60812854220725
 30
0.0
  0
VERTEX
  5
B5D
  8
LAYER_1
 10
-70.61854729221625
 20
53.35555515439976
 30
0.0
  0
VERTEX
  5
B5E
  8
LAYER_1
 10
-70.82858517730594
 20
53.08175289207255
 30
0.0
  0
VERTEX
  5
B5F
  8
LAYER_1
 10
-71.02511559849759
 20
52.78869946675763
 30
0.0
  0
VERTEX
  5
B60
  8
LAYER_1
 10
-71.2075325565201
 20
52.478372589987
 30
0.0
  0
VERTEX
  5
B61
  8
LAYER_1
 10
-71.37523005210227
 20
52.15274997329266
 30
0.0
  0
VERTEX
  5
B62
  8
LAYER_1
 10
-71.52760208597292
 20
51.8138093282066
 30
0.0
  0
VERTEX
  5
B63
  8
LAYER_1
 10
-71.66404265886086
 20
51.46352836626082
 30
0.0
  0
VERTEX
  5
B64
  8
LAYER_1
 10
-71.78394577149494
 20
51.10388479898733
 30
0.0
  0
VERTEX
  5
B65
  8
LAYER_1
 10
-71.886705424604
 20
50.73685633791812
 30
0.0
  0
VERTEX
  5
B66
  8
LAYER_1
 10
-71.97171561891682
 20
50.36442069458519
 30
0.0
  0
VERTEX
  5
B67
  8
LAYER_1
 10
-72.03837035516227
 20
49.98855558052054
 30
0.0
  0
VERTEX
  5
B68
  8
LAYER_1
 10
-72.08606363406918
 20
49.61123870725616
 30
0.0
  0
VERTEX
  5
B69
  8
LAYER_1
 10
-72.11418945636636
 20
49.23444778632405
 30
0.0
  0
VERTEX
  5
B6A
  8
LAYER_1
 10
-72.12214182278265
 20
48.86016052925622
 30
0.0
  0
VERTEX
  5
B6B
  8
LAYER_1
 10
-72.10931473404686
 20
48.49035464758467
 30
0.0
  0
VERTEX
  5
B6C
  8
LAYER_1
 10
-72.07510219088783
 20
48.12700785284139
 30
0.0
  0
VERTEX
  5
B6D
  8
LAYER_1
 10
-72.00268205284017
 20
47.67309488642864
 30
0.0
  0
VERTEX
  5
B6E
  8
LAYER_1
 10
-71.89746065581966
 20
47.18270550712275
 30
0.0
  0
VERTEX
  5
B6F
  8
LAYER_1
 10
-71.76606554471292
 20
46.67642702784212
 30
0.0
  0
VERTEX
  5
B70
  8
LAYER_1
 10
-71.61512426440657
 20
46.1748467615052
 30
0.0
  0
VERTEX
  5
B71
  8
LAYER_1
 10
-71.45126435978727
 20
45.69855202103038
 30
0.0
  0
VERTEX
  5
B72
  8
LAYER_1
 10
-71.28111337574161
 20
45.26813011933609
 30
0.0
  0
VERTEX
  5
B73
  8
LAYER_1
 10
-71.11129885715624
 20
44.90416836934075
 30
0.0
  0
VERTEX
  5
B74
  8
LAYER_1
 10
-71.02858888018821
 20
44.75354358651719
 30
0.0
  0
VERTEX
  5
B75
  8
LAYER_1
 10
-70.94844834891775
 20
44.62725408396277
 30
0.0
  0
VERTEX
  5
B76
  8
LAYER_1
 10
-70.52967245838427
 20
43.99279023139056
 30
0.0
  0
VERTEX
  5
B77
  8
LAYER_1
 10
-70.37337639673464
 20
43.76869503888502
 30
0.0
  0
VERTEX
  5
B78
  8
LAYER_1
 10
-70.18964543043364
 20
43.5364443738137
 30
0.0
  0
VERTEX
  5
B79
  8
LAYER_1
 10
-69.98167286796235
 20
43.29855420740981
 30
0.0
  0
VERTEX
  5
B7A
  8
LAYER_1
 10
-69.75265201780186
 20
43.05754051090653
 30
0.0
  0
VERTEX
  5
B7B
  8
LAYER_1
 10
-69.50577618843323
 20
42.81591925553708
 30
0.0
  0
VERTEX
  5
B7C
  8
LAYER_1
 10
-69.24423868833759
 20
42.57620641253465
 30
0.0
  0
VERTEX
  5
B7D
  8
LAYER_1
 10
-68.97123282599603
 20
42.34091795313244
 30
0.0
  0
VERTEX
  5
B7E
  8
LAYER_1
 10
-68.68995190988959
 20
42.11256984856363
 30
0.0
  0
VERTEX
  5
B7F
  8
LAYER_1
 10
-68.40358924849937
 20
41.89367807006144
 30
0.0
  0
VERTEX
  5
B80
  8
LAYER_1
 10
-68.11533815030648
 20
41.68675858885906
 30
0.0
  0
VERTEX
  5
B81
  8
LAYER_1
 10
-67.828391923792
 20
41.49432737618968
 30
0.0
  0
VERTEX
  5
B82
  8
LAYER_1
 10
-67.54594387743703
 20
41.31890040328651
 30
0.0
  0
VERTEX
  5
B83
  8
LAYER_1
 10
-67.2711873197226
 20
41.16299364138273
 30
0.0
  0
VERTEX
  5
B84
  8
LAYER_1
 10
-67.00731555912986
 20
41.02912306171157
 30
0.0
  0
VERTEX
  5
B85
  8
LAYER_1
 10
-66.75752190413988
 20
40.9198046355062
 30
0.0
  0
VERTEX
  5
B86
  8
LAYER_1
 10
-66.52499966323376
 20
40.83755433399982
 30
0.0
  0
VERTEX
  5
B87
  8
LAYER_1
 10
-66.30445277947001
 20
40.75800444295057
 30
0.0
  0
VERTEX
  5
B88
  8
LAYER_1
 10
-66.03749964386225
 20
40.64695378513576
 30
0.0
  0
VERTEX
  5
B89
  8
LAYER_1
 10
-65.76785342617956
 20
40.53665809778268
 30
0.0
  0
VERTEX
  5
B8A
  8
LAYER_1
 10
-65.46128987478149
 20
40.4286197753371
 30
0.0
  0
VERTEX
  5
B8B
  8
LAYER_1
 10
-65.12322604271719
 20
40.3242294886895
 30
0.0
  0
VERTEX
  5
B8C
  8
LAYER_1
 10
-64.75907898303583
 20
40.22487790873036
 30
0.0
  0
VERTEX
  5
B8D
  8
LAYER_1
 10
-64.3742657487866
 20
40.13195570635016
 30
0.0
  0
VERTEX
  5
B8E
  8
LAYER_1
 10
-63.97420339301866
 20
40.04685355243939
 30
0.0
  0
VERTEX
  5
B8F
  8
LAYER_1
 10
-63.56430896878118
 20
39.97096211788853
 30
0.0
  0
VERTEX
  5
B90
  8
LAYER_1
 10
-63.14999952912331
 20
39.90567207358806
 30
0.0
  0
VERTEX
  5
B91
  8
LAYER_1
 10
-62.58749950677156
 20
39.82493334658574
 30
0.0
  0
VERTEX
  5
B92
  8
LAYER_1
 10
-60.3374994173646
 20
39.59161822171762
 30
0.0
  0
VERTEX
  5
B93
  8
LAYER_1
 10
-55.08749920874834
 20
39.62054508218954
 30
0.0
  0
VERTEX
  5
B94
  8
LAYER_1
 10
-54.41249918192625
 20
39.38015401373181
 30
0.0
  0
VERTEX
  5
B95
  8
LAYER_1
 10
-53.92521969605319
 20
39.21723683769073
 30
0.0
  0
VERTEX
  5
B96
  8
LAYER_1
 10
-53.35164886959622
 20
39.05003561880751
 30
0.0
  0
VERTEX
  5
B97
  8
LAYER_1
 10
-52.59600317099205
 20
38.85224930353773
 30
0.0
  0
VERTEX
  5
B98
  8
LAYER_1
 10
-51.56249906867743
 20
38.59757683833701
 30
0.0
  0
VERTEX
  5
B99
  8
LAYER_1
 10
-50.88749904185534
 20
38.43398742430469
 30
0.0
  0
VERTEX
  5
B9A
  8
LAYER_1
 10
-50.7180986697968
 20
35.43750438839197
 30
0.0
  0
VERTEX
  5
B9B
  8
LAYER_1
 10
-50.59767314063708
 20
35.06250437349081
 30
0.0
  0
VERTEX
  5
B9C
  8
LAYER_1
 10
-50.55013886421169
 20
34.9320050065599
 30
0.0
  0
VERTEX
  5
B9D
  8
LAYER_1
 10
-50.49246905638137
 20
34.80453302536219
 30
0.0
  0
VERTEX
  5
B9E
  8
LAYER_1
 10
-50.42496600995566
 20
34.68035217042593
 30
0.0
  0
VERTEX
  5
B9F
  8
LAYER_1
 10
-50.34793201774406
 20
34.55972618227939
 30
0.0
  0
VERTEX
  5
BA0
  8
LAYER_1
 10
-50.2616693725561
 20
34.44291880145084
 30
0.0
  0
VERTEX
  5
BA1
  8
LAYER_1
 10
-50.16648036720126
 20
34.33019376846858
 30
0.0
  0
VERTEX
  5
BA2
  8
LAYER_1
 10
-50.06266729448908
 20
34.22181482386085
 30
0.0
  0
VERTEX
  5
BA3
  8
LAYER_1
 10
-49.95053244722908
 20
34.11804570815595
 30
0.0
  0
VERTEX
  5
BA4
  8
LAYER_1
 10
-49.83037811823075
 20
34.01915016188215
 30
0.0
  0
VERTEX
  5
BA5
  8
LAYER_1
 10
-49.70250660030362
 20
33.92539192556771
 30
0.0
  0
VERTEX
  5
BA6
  8
LAYER_1
 10
-49.5672201862572
 20
33.83703473974091
 30
0.0
  0
VERTEX
  5
BA7
  8
LAYER_1
 10
-49.424821168901
 20
33.75434234493004
 30
0.0
  0
VERTEX
  5
BA8
  8
LAYER_1
 10
-49.27561184104454
 20
33.67757848166335
 30
0.0
  0
VERTEX
  5
BA9
  8
LAYER_1
 10
-49.11989449549732
 20
33.60700689046912
 30
0.0
  0
VERTEX
  5
BAA
  8
LAYER_1
 10
-48.95797142506887
 20
33.54289131187564
 30
0.0
  0
SEQEND
  5
D89
  8
LAYER_1
  0
POLYLINE
  5
79
  8
LAYER_1
 66
     1
 10
0.0
 20
0.0
 30
0.0
 70
     1
  0
VERTEX
  5
BAB
  8
LAYER_1
 10
51.04023067763966
 20
35.07325012085863
 30
0.0
  0
VERTEX
  5
BAC
  8
LAYER_1
 10
51.3183838097839
 20
35.30206157762967
 30
0.0
  0
VERTEX
  5
BAD
  8
LAYER_1
 10
51.67500503361225
 20
35.58107740876844
 30
0.0
  0
VERTEX
  5
BAE
  8
LAYER_1
 10
52.09778757260949
 20
35.88394257115671
 30
0.0
  0
VERTEX
  5
BAF
  8
LAYER_1
 10
52.56104220571599
 20
36.18389987270723
 30
0.0
  0
VERTEX
  5
BB0
  8
LAYER_1
 10
53.0060154202924
 20
36.44467535342799
 30
0.0
  0
VERTEX
  5
BB1
  8
LAYER_1
 10
53.20328602293201
 20
36.54903429847971
 30
0.0
  0
VERTEX
  5
BB2
  8
LAYER_1
 10
53.37395370369933
 20
36.62999505332698
 30
0.0
  0
VERTEX
  5
BB3
  8
LAYER_1
 10
53.54280632886339
 20
36.71287195052062
 30
0.0
  0
VERTEX
  5
BB4
  8
LAYER_1
 10
53.60006747549816
 20
36.75307579836964
 30
0.0
  0
VERTEX
  5
BB5
  8
LAYER_1
 10
53.64323119104129
 20
36.79765232602548
 30
0.0
  0
VERTEX
  5
BB6
  8
LAYER_1
 10
53.67530698514771
 20
36.85049834371718
 30
0.0
  0
VERTEX
  5
BB7
  8
LAYER_1
 10
53.69930436747232
 20
36.9155106616738
 30
0.0
  0
VERTEX
  5
BB8
  8
LAYER_1
 10
53.73510193539579
 20
37.09762143929782
 30
0.0
  0
VERTEX
  5
BB9
  8
LAYER_1
 10
53.74814826766756
 20
37.21406088875953
 30
0.0
  0
VERTEX
  5
BBA
  8
LAYER_1
 10
53.75331780784242
 20
37.33518453424808
 30
0.0
  0
VERTEX
  5
BBB
  8
LAYER_1
 10
53.74103247878482
 20
37.58817186447499
 30
0.0
  0
VERTEX
  5
BBC
  8
LAYER_1
 10
53.70025788198977
 20
37.8499583323172
 30
0.0
  0
VERTEX
  5
BBD
  8
LAYER_1
 10
53.63300595122401
 20
38.11391884011334
 30
0.0
  0
VERTEX
  5
BBE
  8
LAYER_1
 10
53.54128862025431
 20
38.37342829020201
 30
0.0
  0
VERTEX
  5
BBF
  8
LAYER_1
 10
53.42711782284743
 20
38.62186158492187
 30
0.0
  0
VERTEX
  5
BC0
  8
LAYER_1
 10
53.29250549277013
 20
38.85259362661154
 30
0.0
  0
VERTEX
  5
BC1
  8
LAYER_1
 10
53.2181624822822
 20
38.95925133455086
 30
0.0
  0
VERTEX
  5
BC2
  8
LAYER_1
 10
53.13946356378918
 20
39.05899931760963
 30
0.0
  0
VERTEX
  5
BC3
  8
LAYER_1
 10
53.05162981010922
 20
39.1504730160617
 30
0.0
  0
VERTEX
  5
BC4
  8
LAYER_1
 10
52.93176603651068
 20
39.25775069936144
 30
0.0
  0
VERTEX
  5
BC5
  8
LAYER_1
 10
52.64296952278492
 20
39.48519688327496
 30
0.0
  0
VERTEX
  5
BC6
  8
LAYER_1
 10
52.36711620906595
 20
39.67229559489224
 30
0.0
  0
VERTEX
  5
BC7
  8
LAYER_1
 10
52.2634314354759
 20
39.72913893782168
 30
0.0
  0
VERTEX
  5
BC8
  8
LAYER_1
 10
52.19824828180781
 20
39.75000455975533
 30
0.0
  0
VERTEX
  5
BC9
  8
LAYER_1
 10
52.14720819186131
 20
39.75000455975533
 30
0.0
  0
VERTEX
  5
BCA
  8
LAYER_1
 10
52.10348615854556
 20
39.07514808803668
 30
0.0
  0
VERTEX
  5
BCB
  8
LAYER_1
 10
52.08735226889553
 20
38.88609033983631
 30
0.0
  0
VERTEX
  5
BCC
  8
LAYER_1
 10
52.06423929927925
 20
38.71007488072125
 30
0.0
  0
VERTEX
  5
BCD
  8
LAYER_1
 10
52.03405974243483
 20
38.54698511366518
 30
0.0
  0
VERTEX
  5
BCE
  8
LAYER_1
 10
51.99672609110038
 20
38.3967044416418
 30
0.0
  0
VERTEX
  5
BCF
  8
LAYER_1
 10
51.95215083801402
 20
38.2591162676248
 30
0.0
  0
VERTEX
  5
BD0
  8
LAYER_1
 10
51.90024647591385
 20
38.13410399458787
 30
0.0
  0
VERTEX
  5
BD1
  8
LAYER_1
 10
51.84092549753799
 20
38.02155102550472
 30
0.0
  0
VERTEX
  5
BD2
  8
LAYER_1
 10
51.77410039562455
 20
37.92134076334902
 30
0.0
  0
VERTEX
  5
BD3
  8
LAYER_1
 10
51.69968366291165
 20
37.83335661109448
 30
0.0
  0
VERTEX
  5
BD4
  8
LAYER_1
 10
51.61758779213739
 20
37.75748197171479
 30
0.0
  0
VERTEX
  5
BD5
  8
LAYER_1
 10
51.52772527603989
 20
37.69360024818363
 30
0.0
  0
VERTEX
  5
BD6
  8
LAYER_1
 10
51.43000860735727
 20
37.64159484347471
 30
0.0
  0
VERTEX
  5
BD7
  8
LAYER_1
 10
51.32435027882762
 20
37.6013491605617
 30
0.0
  0
VERTEX
  5
BD8
  8
LAYER_1
 10
51.21066278318909
 20
37.57274660241832
 30
0.0
  0
VERTEX
  5
BD9
  8
LAYER_1
 10
51.08885861317975
 20
37.55567057201825
 30
0.0
  0
VERTEX
  5
BDA
  8
LAYER_1
 10
50.95885026153773
 20
37.55000447233519
 30
0.0
  0
VERTEX
  5
BDB
  8
LAYER_1
 10
50.84233470948607
 20
37.55536835118946
 30
0.0
  0
VERTEX
  5
BDC
  8
LAYER_1
 10
50.73120470361424
 20
37.57151555550212
 30
0.0
  0
VERTEX
  5
BDD
  8
LAYER_1
 10
50.62538666852539
 20
37.59852943689793
 30
0.0
  0
VERTEX
  5
BDE
  8
LAYER_1
 10
50.52480702882267
 20
37.63649334700165
 30
0.0
  0
VERTEX
  5
BDF
  8
LAYER_1
 10
50.42939220910922
 20
37.68549063743802
 30
0.0
  0
VERTEX
  5
BE0
  8
LAYER_1
 10
50.33906863398817
 20
37.74560465983182
 30
0.0
  0
VERTEX
  5
BE1
  8
LAYER_1
 10
50.25376272806267
 20
37.8169187658078
 30
0.0
  0
VERTEX
  5
BE2
  8
LAYER_1
 10
50.17340091593586
 20
37.89951630699071
 30
0.0
  0
VERTEX
  5
BE3
  8
LAYER_1
 10
50.09790962221088
 20
37.99348063500531
 30
0.0
  0
VERTEX
  5
BE4
  8
LAYER_1
 10
50.02721527149087
 20
38.09889510147636
 30
0.0
  0
VERTEX
  5
BE5
  8
LAYER_1
 10
49.96124428837898
 20
38.21584305802862
 30
0.0
  0
VERTEX
  5
BE6
  8
LAYER_1
 10
49.89992309747834
 20
38.34440785628684
 30
0.0
  0
VERTEX
  5
BE7
  8
LAYER_1
 10
49.84317812339211
 20
38.48467284787579
 30
0.0
  0
VERTEX
  5
BE8
  8
LAYER_1
 10
49.7909357907234
 20
38.63672138442021
 30
0.0
  0
VERTEX
  5
BE9
  8
LAYER_1
 10
49.69966474805119
 20
38.97650249887454
 30
0.0
  0
VERTEX
  5
BEA
  8
LAYER_1
 10
49.60533430340107
 20
39.39185002038731
 30
0.0
  0
VERTEX
  5
BEB
  8
LAYER_1
 10
49.35400308925627
 20
39.10559958151359
 30
0.0
  0
VERTEX
  5
BEC
  8
LAYER_1
 10
49.19819809578939
 20
38.91379793968735
 30
0.0
  0
VERTEX
  5
BED
  8
LAYER_1
 10
49.06533763660229
 20
38.71878588280932
 30
0.0
  0
VERTEX
  5
BEE
  8
LAYER_1
 10
48.95479893184206
 20
38.51888858302993
 30
0.0
  0
VERTEX
  5
BEF
  8
LAYER_1
 10
48.86595920165577
 20
38.31243121249964
 30
0.0
  0
VERTEX
  5
BF0
  8
LAYER_1
 10
48.79819566619049
 20
38.09773894336886
 30
0.0
  0
VERTEX
  5
BF1
  8
LAYER_1
 10
48.75088554559333
 20
37.87313694778804
 30
0.0
  0
VERTEX
  5
BF2
  8
LAYER_1
 10
48.72340606001134
 20
37.63695039790761
 30
0.0
  0
VERTEX
  5
BF3
  8
LAYER_1
 10
48.71513442959161
 20
37.38750446587801
 30
0.0
  0
VERTEX
  5
BF4
  8
LAYER_1
 10
48.72475011780084
 20
37.07228922889977
 30
0.0
  0
VERTEX
  5
BF5
  8
LAYER_1
 10
48.73699291267317
 20
36.94224822202238
 30
0.0
  0
VERTEX
  5
BF6
  8
LAYER_1
 10
48.75544772520693
 20
36.82404738328025
 30
0.0
  0
VERTEX
  5
BF7
  8
LAYER_1
 10
48.78105609326435
 20
36.71278353296898
 30
0.0
  0
VERTEX
  5
BF8
  8
LAYER_1
 10
48.81475955470765
 20
36.60355349138415
 30
0.0
  0
VERTEX
  5
BF9
  8
LAYER_1
 10
48.9102179092008
 20
36.37158211557616
 30
0.0
  0
VERTEX
  5
BFA
  8
LAYER_1
 10
49.01304461457349
 20
36.16721186675733
 30
0.0
  0
VERTEX
  5
BFB
  8
LAYER_1
 10
49.12455449508815
 20
35.98033417022832
 30
0.0
  0
VERTEX
  5
BFC
  8
LAYER_1
 10
49.24550730336408
 20
35.81013265029922
 30
0.0
  0
VERTEX
  5
BFD
  8
LAYER_1
 10
49.3766627920206
 20
35.65579093128014
 30
0.0
  0
VERTEX
  5
BFE
  8
LAYER_1
 10
49.51878071367705
 20
35.51649263748116
 30
0.0
  0
VERTEX
  5
BFF
  8
LAYER_1
 10
49.67262082095274
 20
35.3914213932124
 30
0.0
  0
VERTEX
  5
C00
  8
LAYER_1
 10
49.83894286646701
 20
35.27976082278395
 30
0.0
  0
VERTEX
  5
C01
  8
LAYER_1
 10
50.01850660283915
 20
35.1806945505059
 30
0.0
  0
VERTEX
  5
C02
  8
LAYER_1
 10
50.23486330601661
 20
35.0755496352246
 30
0.0
  0
VERTEX
  5
C03
  8
LAYER_1
 10
50.41083120554393
 20
34.9981928207669
 30
0.0
  0
VERTEX
  5
C04
  8
LAYER_1
 10
50.55394167555654
 20
34.94783210837464
 30
0.0
  0
VERTEX
  5
C05
  8
LAYER_1
 10
50.6717260901899
 20
34.92367549928964
 30
0.0
  0
VERTEX
  5
C06
  8
LAYER_1
 10
50.77171582357944
 20
34.92493099475372
 30
0.0
  0
VERTEX
  5
C07
  8
LAYER_1
 10
50.86144224986063
 20
34.95080659600869
 30
0.0
  0
VERTEX
  5
C08
  8
LAYER_1
 10
50.94843674316888
 20
35.00051030429638
 30
0.0
  0
SEQEND
  5
D8A
  8
LAYER_1
  0
POLYLINE
  5
7A
  8
LAYER_1
 66
     1
 10
0.0
 20
0.0
 30
0.0
 70
     1
  0
VERTEX
  5
C09
  8
LAYER_1
 10
-45.37499882280827
 20
35.88408467299051
 30
0.0
  0
VERTEX
  5
C0A
  8
LAYER_1
 10
-43.38749874383211
 20
36.3283530934694
 30
0.0
  0
VERTEX
  5
C0B
  8
LAYER_1
 10
-42.1874986961484
 20
36.59835833973489
 30
0.0
  0
VERTEX
  5
C0C
  8
LAYER_1
 10
-41.81249868124723
 20
36.6940562235047
 30
0.0
  0
VERTEX
  5
C0D
  8
LAYER_1
 10
-42.93749872595072
 20
36.86525504677036
 30
0.0
  0
VERTEX
  5
C0E
  8
LAYER_1
 10
-44.05148314521648
 20
37.04285187180066
 30
0.0
  0
VERTEX
  5
C0F
  8
LAYER_1
 10
-45.14999881386757
 20
37.2294331248409
 30
0.0
  0
VERTEX
  5
C10
  8
LAYER_1
 10
-46.23749885708094
 20
37.42241237964578
 30
0.0
  0
VERTEX
  5
C11
  8
LAYER_1
 10
-47.30426352919775
 20
37.62862722157966
 30
0.0
  0
VERTEX
  5
C12
  8
LAYER_1
 10
-47.40812266942989
 20
35.89143227612195
 30
0.0
  0
VERTEX
  5
C13
  8
LAYER_1
 10
-47.27722605867939
 20
35.79571833747235
 30
0.0
  0
VERTEX
  5
C14
  8
LAYER_1
 10
-47.2327870407365
 20
35.77057146729879
 30
0.0
  0
VERTEX
  5
C15
  8
LAYER_1
 10
-47.17465478029841
 20
35.74968887118732
 30
0.0
  0
VERTEX
  5
C16
  8
LAYER_1
 10
-47.02053900444123
 20
35.72056652522803
 30
0.0
  0
VERTEX
  5
C17
  8
LAYER_1
 10
-46.82133567611696
 20
35.70805134774946
 30
0.0
  0
VERTEX
  5
C18
  8
LAYER_1
 10
-46.58350174033471
 20
35.71184338690654
 30
0.0
  0
VERTEX
  5
C19
  8
LAYER_1
 10
-46.31349414210361
 20
35.73164269085423
 30
0.0
  0
VERTEX
  5
C1A
  8
LAYER_1
 10
-46.01776982643275
 20
35.76714930774749
 30
0.0
  0
VERTEX
  5
C1B
  8
LAYER_1
 10
-45.70278573833127
 20
35.81806328574126
 30
0.0
  0
SEQEND
  5
D8B
  8
LAYER_1
  0
POLYLINE
  5
7B
  8
LAYER_1
 66
     1
 10
0.0
 20
0.0
 30
0.0
 70
     1
  0
VERTEX
  5
C1C
  8
LAYER_1
 10
19.39090595049284
 20
36.18654390560528
 30
0.0
  0
VERTEX
  5
C1D
  8
LAYER_1
 10
19.47408689534624
 20
36.35575847250884
 30
0.0
  0
VERTEX
  5
C1E
  8
LAYER_1
 10
19.55477429243621
 20
36.56771020932423
 30
0.0
  0
VERTEX
  5
C1F
  8
LAYER_1
 10
19.62375127387674
 20
36.79532880247579
 30
0.0
  0
VERTEX
  5
C20
  8
LAYER_1
 10
19.67180097178176
 20
37.01154393838783
 30
0.0
  0
VERTEX
  5
C21
  8
LAYER_1
 10
19.69707710086517
 20
37.19661756634158
 30
0.0
  0
VERTEX
  5
C22
  8
LAYER_1
 10
19.70992268738499
 20
37.3823457368088
 30
0.0
  0
VERTEX
  5
C23
  8
LAYER_1
 10
19.7106507491814
 20
37.56785331512582
 30
0.0
  0
VERTEX
  5
C24
  8
LAYER_1
 10
19.69957430409452
 20
37.75226516662893
 30
0.0
  0
VERTEX
  5
C25
  8
LAYER_1
 10
19.67700636996452
 20
37.93470615665446
 30
0.0
  0
VERTEX
  5
C26
  8
LAYER_1
 10
19.64325996463151
 20
38.11430115053873
 30
0.0
  0
VERTEX
  5
C27
  8
LAYER_1
 10
19.59864810593567
 20
38.29017501361804
 30
0.0
  0
VERTEX
  5
C28
  8
LAYER_1
 10
19.54348381171713
 20
38.46145261122871
 30
0.0
  0
VERTEX
  5
C29
  8
LAYER_1
 10
19.47808009981604
 20
38.62725880870705
 30
0.0
  0
VERTEX
  5
C2A
  8
LAYER_1
 10
19.40274998807254
 20
38.78671847138938
 30
0.0
  0
VERTEX
  5
C2B
  8
LAYER_1
 10
19.31780649432677
 20
38.93895646461201
 30
0.0
  0
VERTEX
  5
C2C
  8
LAYER_1
 10
19.2235626364189
 20
39.08309765371126
 30
0.0
  0
VERTEX
  5
C2D
  8
LAYER_1
 10
19.12033143218905
 20
39.21826690402342
 30
0.0
  0
VERTEX
  5
C2E
  8
LAYER_1
 10
19.00842589947738
 20
39.34358908088484
 30
0.0
  0
VERTEX
  5
C2F
  8
LAYER_1
 10
18.88815905612403
 20
39.45818904963181
 30
0.0
  0
VERTEX
  5
C30
  8
LAYER_1
 10
18.75984391996914
 20
39.56119167560065
 30
0.0
  0
VERTEX
  5
C31
  8
LAYER_1
 10
18.43218410123697
 20
39.80132675030923
 30
0.0
  0
VERTEX
  5
C32
  8
LAYER_1
 10
18.42155714558052
 20
39.23191563342559
 30
0.0
  0
VERTEX
  5
C33
  8
LAYER_1
 10
18.40769982911065
 20
38.94365842659764
 30
0.0
  0
VERTEX
  5
C34
  8
LAYER_1
 10
18.37507865270548
 20
38.70820878345926
 30
0.0
  0
VERTEX
  5
C35
  8
LAYER_1
 10
18.31907297645266
 20
38.50257017509595
 30
0.0
  0
VERTEX
  5
C36
  8
LAYER_1
 10
18.23506216043985
 20
38.30374607259324
 30
0.0
  0
VERTEX
  5
C37
  8
LAYER_1
 10
18.15766116347004
 20
38.16773123042069
 30
0.0
  0
VERTEX
  5
C38
  8
LAYER_1
 10
18.06737895063542
 20
38.0472487952979
 30
0.0
  0
VERTEX
  5
C39
  8
LAYER_1
 10
17.96572999382187
 20
37.9424686722956
 30
0.0
  0
VERTEX
  5
C3A
  8
LAYER_1
 10
17.85422876491529
 20
37.8535607664845
 30
0.0
  0
VERTEX
  5
C3B
  8
LAYER_1
 10
17.73438973580156
 20
37.7806949829353
 30
0.0
  0
VERTEX
  5
C3C
  8
LAYER_1
 10
17.60772737836656
 20
37.72404122671873
 30
0.0
  0
VERTEX
  5
C3D
  8
LAYER_1
 10
17.47575616449618
 20
37.68376940290548
 30
0.0
  0
VERTEX
  5
C3E
  8
LAYER_1
 10
17.3399905660763
 20
37.66004941656628
 30
0.0
  0
VERTEX
  5
C3F
  8
LAYER_1
 10
17.20194505499281
 20
37.65305117277182
 30
0.0
  0
VERTEX
  5
C40
  8
LAYER_1
 10
17.06313410313158
 20
37.66294457659283
 30
0.0
  0
VERTEX
  5
C41
  8
LAYER_1
 10
16.92507218237851
 20
37.6898995331
 30
0.0
  0
VERTEX
  5
C42
  8
LAYER_1
 10
16.78927376461948
 20
37.73408594736406
 30
0.0
  0
VERTEX
  5
C43
  8
LAYER_1
 10
16.65725332174038
 20
37.79567372445571
 30
0.0
  0
VERTEX
  5
C44
  8
LAYER_1
 10
16.53052532562708
 20
37.87483276944566
 30
0.0
  0
VERTEX
  5
C45
  8
LAYER_1
 10
16.41060424816548
 20
37.97173298740464
 30
0.0
  0
VERTEX
  5
C46
  8
LAYER_1
 10
16.29900456124146
 20
38.08654428340333
 30
0.0
  0
VERTEX
  5
C47
  8
LAYER_1
 10
16.23456333603042
 20
38.16970073101886
 30
0.0
  0
VERTEX
  5
C48
  8
LAYER_1
 10
16.17221611387558
 20
38.2683309847141
 30
0.0
  0
VERTEX
  5
C49
  8
LAYER_1
 10
16.11097128583681
 20
38.38481916763337
 30
0.0
  0
VERTEX
  5
C4A
  8
LAYER_1
 10
16.04983724297399
 20
38.52154940292098
 30
0.0
  0
VERTEX
  5
C4B
  8
LAYER_1
 10
15.92393507701573
 20
38.86527252317845
 30
0.0
  0
VERTEX
  5
C4C
  8
LAYER_1
 10
15.78657674447983
 20
39.31857333064099
 30
0.0
  0
VERTEX
  5
C4D
  8
LAYER_1
 10
15.73661506222757
 20
39.48188299491326
 30
0.0
  0
VERTEX
  5
C4E
  8
LAYER_1
 10
15.68873611244567
 20
39.59832437829454
 30
0.0
  0
VERTEX
  5
C4F
  8
LAYER_1
 10
15.66380775957021
 20
39.63893921484371
 30
0.0
  0
VERTEX
  5
C50
  8
LAYER_1
 10
15.63727620661929
 20
39.66780068140133
 30
0.0
  0
VERTEX
  5
C51
  8
LAYER_1
 10
15.60843349252854
 20
39.68489667804446
 30
0.0
  0
VERTEX
  5
C52
  8
LAYER_1
 10
15.57657165623362
 20
39.69021510485017
 30
0.0
  0
VERTEX
  5
C53
  8
LAYER_1
 10
15.54098273667016
 20
39.68374386189551
 30
0.0
  0
VERTEX
  5
C54
  8
LAYER_1
 10
15.50095877277382
 20
39.66547084925755
 30
0.0
  0
VERTEX
  5
C55
  8
LAYER_1
 10
15.40477386772508
 20
39.59347111524001
 30
0.0
  0
VERTEX
  5
C56
  8
LAYER_1
 10
15.28235325257256
 20
39.47411910341405
 30
0.0
  0
VERTEX
  5
C57
  8
LAYER_1
 10
15.12803323880144
 20
39.3073180143962
 30
0.0
  0
VERTEX
  5
C58
  8
LAYER_1
 10
15.02352834015977
 20
39.18496404666679
 30
0.0
  0
VERTEX
  5
C59
  8
LAYER_1
 10
14.92691869360456
 20
39.0581650748714
 30
0.0
  0
VERTEX
  5
C5A
  8
LAYER_1
 10
14.83831690516771
 20
38.92730819561353
 30
0.0
  0
VERTEX
  5
C5B
  8
LAYER_1
 10
14.7578355808811
 20
38.79278050549671
 30
0.0
  0
VERTEX
  5
C5C
  8
LAYER_1
 10
14.68558732677664
 20
38.65496910112444
 30
0.0
  0
VERTEX
  5
C5D
  8
LAYER_1
 10
14.62168474888623
 20
38.51426107910022
 30
0.0
  0
VERTEX
  5
C5E
  8
LAYER_1
 10
14.56624045324178
 20
38.37104353602759
 30
0.0
  0
VERTEX
  5
C5F
  8
LAYER_1
 10
14.51936704587517
 20
38.22570356851006
 30
0.0
  0
VERTEX
  5
C60
  8
LAYER_1
 10
14.48117713281831
 20
38.07862827315112
 30
0.0
  0
VERTEX
  5
C61
  8
LAYER_1
 10
14.4517833201031
 20
37.93020474655431
 30
0.0
  0
VERTEX
  5
C62
  8
LAYER_1
 10
14.43129821376145
 20
37.78082008532314
 30
0.0
  0
VERTEX
  5
C63
  8
LAYER_1
 10
14.41983441982524
 20
37.63086138606111
 30
0.0
  0
VERTEX
  5
C64
  8
LAYER_1
 10
14.41750454432638
 20
37.48071574537173
 30
0.0
  0
VERTEX
  5
C65
  8
LAYER_1
 10
14.42442119329677
 20
37.33077025985854
 30
0.0
  0
VERTEX
  5
C66
  8
LAYER_1
 10
14.44069697276831
 20
37.18141202612503
 30
0.0
  0
VERTEX
  5
C67
  8
LAYER_1
 10
14.46644448877291
 20
37.03302814077472
 30
0.0
  0
VERTEX
  5
C68
  8
LAYER_1
 10
14.55301529484667
 20
36.66874953893269
 30
0.0
  0
VERTEX
  5
C69
  8
LAYER_1
 10
14.59371004038338
 20
36.5311035409561
 30
0.0
  0
VERTEX
  5
C6A
  8
LAYER_1
 10
14.62570982256649
 20
36.44868476752225
 30
0.0
  0
VERTEX
  5
C6B
  8
LAYER_1
 10
14.68852275812516
 20
36.3313177238434
 30
0.0
  0
VERTEX
  5
C6C
  8
LAYER_1
 10
15.53801319476906
 20
36.23948904483956
 30
0.0
  0
VERTEX
  5
C6D
  8
LAYER_1
 10
17.73750368505716
 20
35.99887855085099
 30
0.0
  0
VERTEX
  5
C6E
  8
LAYER_1
 10
19.08750373870134
 20
35.85009673586627
 30
0.0
  0
VERTEX
  5
C6F
  8
LAYER_1
 10
19.14059220285195
 20
35.85005057032475
 30
0.0
  0
VERTEX
  5
C70
  8
LAYER_1
 10
19.17676776559832
 20
35.87658771509733
 30
0.0
  0
VERTEX
  5
C71
  8
LAYER_1
 10
19.23602085768358
 20
35.94887644427754
 30
0.0
  0
VERTEX
  5
C72
  8
LAYER_1
 10
19.31013805926324
 20
36.05587557030148
 30
0.0
  0
SEQEND
  5
D8C
  8
LAYER_1
  0
POLYLINE
  5
7C
  8
LAYER_1
 66
     1
 10
0.0
 20
0.0
 30
0.0
 70
     1
  0
VERTEX
  5
C73
  8
LAYER_1
 10
-25.60228282594188
 20
37.03925882119138
 30
0.0
  0
VERTEX
  5
C74
  8
LAYER_1
 10
-25.51602014073184
 20
37.14319899821027
 30
0.0
  0
VERTEX
  5
C75
  8
LAYER_1
 10
-25.47398608041612
 20
37.2201642065981
 30
0.0
  0
VERTEX
  5
C76
  8
LAYER_1
 10
-25.4233051016802
 20
37.35288696738998
 30
0.0
  0
VERTEX
  5
C77
  8
LAYER_1
 10
-25.37035893489351
 20
37.5227339530894
 30
0.0
  0
VERTEX
  5
C78
  8
LAYER_1
 10
-25.32152931042547
 20
37.71107183619981
 30
0.0
  0
VERTEX
  5
C79
  8
LAYER_1
 10
-25.28494816439204
 20
37.89120818971731
 30
0.0
  0
VERTEX
  5
C7A
  8
LAYER_1
 10
-25.26535181512533
 20
38.03872427801032
 30
0.0
  0
VERTEX
  5
C7B
  8
LAYER_1
 10
-25.26402856631899
 20
38.13839731064073
 30
0.0
  0
VERTEX
  5
C7C
  8
LAYER_1
 10
-25.27062194949273
 20
38.16553555907056
 30
0.0
  0
VERTEX
  5
C7D
  8
LAYER_1
 10
-25.28226672166667
 20
38.17500449717045
 30
0.0
  0
VERTEX
  5
C7E
  8
LAYER_1
 10
-25.35123227800421
 20
38.17500449717045
 30
0.0
  0
VERTEX
  5
C7F
  8
LAYER_1
 10
-26.88749808818102
 20
37.8152429623857
 30
0.0
  0
VERTEX
  5
C80
  8
LAYER_1
 10
-30.11249821633101
 20
37.23750445991755
 30
0.0
  0
VERTEX
  5
C81
  8
LAYER_1
 10
-28.53749815374613
 20
37.14371421616606
 30
0.0
  0
SEQEND
  5
D8D
  8
LAYER_1
  0
POLYLINE
  5
7D
  8
LAYER_1
 66
     1
 10
0.0
 20
0.0
 30
0.0
 70
     1
  0
VERTEX
  5
C82
  8
LAYER_1
 10
-59.81249939650297
 20
41.47455544791708
 30
0.0
  0
VERTEX
  5
C83
  8
LAYER_1
 10
-60.44999942183495
 20
41.78167443665497
 30
0.0
  0
VERTEX
  5
C84
  8
LAYER_1
 10
-61.15337851075556
 20
42.14369418431736
 30
0.0
  0
VERTEX
  5
C85
  8
LAYER_1
 10
-61.94926862514106
 20
42.58280861472481
 30
0.0
  0
VERTEX
  5
C86
  8
LAYER_1
 10
-62.40415044609219
 20
42.85060954733856
 30
0.0
  0
VERTEX
  5
C87
  8
LAYER_1
 10
-62.83278329014549
 20
43.1174750259333
 30
0.0
  0
VERTEX
  5
C88
  8
LAYER_1
 10
-63.23529895783773
 20
43.38353826630645
 30
0.0
  0
VERTEX
  5
C89
  8
LAYER_1
 10
-63.61182924970566
 20
43.64893248425548
 30
0.0
  0
VERTEX
  5
C8A
  8
LAYER_1
 10
-63.96250596628607
 20
43.91379089557785
 30
0.0
  0
VERTEX
  5
C8B
  8
LAYER_1
 10
-64.28746090811572
 20
44.17824671607098
 30
0.0
  0
VERTEX
  5
C8C
  8
LAYER_1
 10
-64.58682587573135
 20
44.44243316153235
 30
0.0
  0
VERTEX
  5
C8D
  8
LAYER_1
 10
-64.86073266966974
 20
44.7064834477594
 30
0.0
  0
VERTEX
  5
C8E
  8
LAYER_1
 10
-65.10931309046765
 20
44.97053079054957
 30
0.0
  0
VERTEX
  5
C8F
  8
LAYER_1
 10
-65.33269893866188
 20
45.23470840570032
 30
0.0
  0
VERTEX
  5
C90
  8
LAYER_1
 10
-65.53102201478913
 20
45.49914950900911
 30
0.0
  0
VERTEX
  5
C91
  8
LAYER_1
 10
-65.70441411938623
 20
45.76398731627337
 30
0.0
  0
VERTEX
  5
C92
  8
LAYER_1
 10
-65.85300705298988
 20
46.02935504329055
 30
0.0
  0
VERTEX
  5
C93
  8
LAYER_1
 10
-65.9769326161369
 20
46.29538590585813
 30
0.0
  0
VERTEX
  5
C94
  8
LAYER_1
 10
-66.07632260936403
 20
46.56221311977352
 30
0.0
  0
VERTEX
  5
C95
  8
LAYER_1
 10
-66.15130883320805
 20
46.8299699008342
 30
0.0
  0
VERTEX
  5
C96
  8
LAYER_1
 10
-66.22333395758454
 20
47.1375048533082
 30
0.0
  0
VERTEX
  5
C97
  8
LAYER_1
 10
-66.52969201878699
 20
53.35469745572391
 30
0.0
  0
VERTEX
  5
C98
  8
LAYER_1
 10
-66.56145792797707
 20
53.38646336491416
 30
0.0
  0
VERTEX
  5
C99
  8
LAYER_1
 10
-66.60216971521466
 20
53.38226479255567
 30
0.0
  0
VERTEX
  5
C9A
  8
LAYER_1
 10
-66.68953624289219
 20
53.34735063816458
 30
0.0
  0
VERTEX
  5
C9B
  8
LAYER_1
 10
-66.95286176584668
 20
53.20870620988248
 30
0.0
  0
VERTEX
  5
C9C
  8
LAYER_1
 10
-67.21668742632755
 20
53.0473272422993
 30
0.0
  0
VERTEX
  5
C9D
  8
LAYER_1
 10
-67.4685476338916
 20
52.87764879797923
 30
0.0
  0
VERTEX
  5
C9E
  8
LAYER_1
 10
-67.70826991298318
 20
52.69989243481609
 30
0.0
  0
VERTEX
  5
C9F
  8
LAYER_1
 10
-67.9356817880466
 20
52.51427971070369
 30
0.0
  0
VERTEX
  5
CA0
  8
LAYER_1
 10
-68.15061078352619
 20
52.32103218353585
 30
0.0
  0
VERTEX
  5
CA1
  8
LAYER_1
 10
-68.35288442386633
 20
52.12037141120639
 30
0.0
  0
VERTEX
  5
CA2
  8
LAYER_1
 10
-68.54233023351131
 20
51.91251895160914
 30
0.0
  0
VERTEX
  5
CA3
  8
LAYER_1
 10
-68.71877573690551
 20
51.6976963626379
 30
0.0
  0
VERTEX
  5
CA4
  8
LAYER_1
 10
-68.88204845849324
 20
51.4761252021865
 30
0.0
  0
VERTEX
  5
CA5
  8
LAYER_1
 10
-69.03197592271884
 20
51.24802702814877
 30
0.0
  0
VERTEX
  5
CA6
  8
LAYER_1
 10
-69.16838565402668
 20
51.01362339841852
 30
0.0
  0
VERTEX
  5
CA7
  8
LAYER_1
 10
-69.29110517686104
 20
50.77313587088957
 30
0.0
  0
VERTEX
  5
CA8
  8
LAYER_1
 10
-69.39996201566629
 20
50.52678600345574
 30
0.0
  0
VERTEX
  5
CA9
  8
LAYER_1
 10
-69.49478369488676
 20
50.27479535401085
 30
0.0
  0
VERTEX
  5
CAA
  8
LAYER_1
 10
-69.57539773896683
 20
50.01738548044872
 30
0.0
  0
VERTEX
  5
CAB
  8
LAYER_1
 10
-69.64163167235077
 20
49.75477794066317
 30
0.0
  0
VERTEX
  5
CAC
  8
LAYER_1
 10
-69.70102852475893
 20
49.43655763665032
 30
0.0
  0
VERTEX
  5
CAD
  8
LAYER_1
 10
-69.73375290980181
 20
49.11620244248449
 30
0.0
  0
VERTEX
  5
CAE
  8
LAYER_1
 10
-69.74223006493261
 20
48.75350603789751
 30
0.0
  0
VERTEX
  5
CAF
  8
LAYER_1
 10
-69.72888522760455
 20
48.30826210262121
 30
0.0
  0
VERTEX
  5
CB0
  8
LAYER_1
 10
-69.71071382381581
 20
48.02425948670383
 30
0.0
  0
VERTEX
  5
CB1
  8
LAYER_1
 10
-69.6831037217379
 20
47.74611995016448
 30
0.0
  0
VERTEX
  5
CB2
  8
LAYER_1
 10
-69.64603487766271
 20
47.47378941259733
 30
0.0
  0
VERTEX
  5
CB3
  8
LAYER_1
 10
-69.59948724788214
 20
47.20721379359647
 30
0.0
  0
VERTEX
  5
CB4
  8
LAYER_1
 10
-69.54344078868805
 20
46.94633901275604
 30
0.0
  0
VERTEX
  5
CB5
  8
LAYER_1
 10
-69.47787545637232
 20
46.69111098967017
 30
0.0
  0
VERTEX
  5
CB6
  8
LAYER_1
 10
-69.40277120722686
 20
46.44147564393298
 30
0.0
  0
VERTEX
  5
CB7
  8
LAYER_1
 10
-69.31810799754354
 20
46.1973788951386
 30
0.0
  0
VERTEX
  5
CB8
  8
LAYER_1
 10
-69.22386578361423
 20
45.95876666288116
 30
0.0
  0
VERTEX
  5
CB9
  8
LAYER_1
 10
-69.12002452173083
 20
45.72558486675477
 30
0.0
  0
VERTEX
  5
CBA
  8
LAYER_1
 10
-69.00656416818521
 20
45.49777942635357
 30
0.0
  0
VERTEX
  5
CBB
  8
LAYER_1
 10
-68.88346467926925
 20
45.27529626127169
 30
0.0
  0
VERTEX
  5
CBC
  8
LAYER_1
 10
-68.75070601127484
 20
45.05808129110325
 30
0.0
  0
VERTEX
  5
CBD
  8
LAYER_1
 10
-68.60826812049388
 20
44.84608043544238
 30
0.0
  0
VERTEX
  5
CBE
  8
LAYER_1
 10
-68.4561309632182
 20
44.63923961388321
 30
0.0
  0
VERTEX
  5
CBF
  8
LAYER_1
 10
-68.29427449573973
 20
44.43750474601984
 30
0.0
  0
VERTEX
  5
CC0
  8
LAYER_1
 10
-67.98094818969602
 20
44.08371027303382
 30
0.0
  0
VERTEX
  5
CC1
  8
LAYER_1
 10
-67.65362603646409
 20
43.75499438319638
 30
0.0
  0
VERTEX
  5
CC2
  8
LAYER_1
 10
-67.31105526372829
 20
43.45086079832664
 30
0.0
  0
VERTEX
  5
CC3
  8
LAYER_1
 10
-66.95198309917305
 20
43.17081324024376
 30
0.0
  0
VERTEX
  5
CC4
  8
LAYER_1
 10
-66.57515677048276
 20
42.91435543076688
 30
0.0
  0
VERTEX
  5
CC5
  8
LAYER_1
 10
-66.17932350534184
 20
42.68099109171511
 30
0.0
  0
VERTEX
  5
CC6
  8
LAYER_1
 10
-65.76323053143469
 20
42.47022394490762
 30
0.0
  0
VERTEX
  5
CC7
  8
LAYER_1
 10
-65.32562507644568
 20
42.28155771216355
 30
0.0
  0
VERTEX
  5
CC8
  8
LAYER_1
 10
-64.86525436805925
 20
42.11449611530202
 30
0.0
  0
VERTEX
  5
CC9
  8
LAYER_1
 10
-64.3808656339598
 20
41.96854287614217
 30
0.0
  0
VERTEX
  5
CCA
  8
LAYER_1
 10
-63.87120610183175
 20
41.84320171650314
 30
0.0
  0
VERTEX
  5
CCB
  8
LAYER_1
 10
-63.33502299935947
 20
41.73797635820408
 30
0.0
  0
VERTEX
  5
CCC
  8
LAYER_1
 10
-62.7710635542274
 20
41.65237052306411
 30
0.0
  0
VERTEX
  5
CCD
  8
LAYER_1
 10
-62.1780749941199
 20
41.58588793290239
 30
0.0
  0
VERTEX
  5
CCE
  8
LAYER_1
 10
-61.55480454672141
 20
41.53803230953806
 30
0.0
  0
VERTEX
  5
CCF
  8
LAYER_1
 10
-60.89999943971634
 20
41.50830737479023
 30
0.0
  0
SEQEND
  5
D8E
  8
LAYER_1
  0
POLYLINE
  5
7E
  8
LAYER_1
 66
     1
 10
0.0
 20
0.0
 30
0.0
 70
     1
  0
VERTEX
  5
CD0
  8
LAYER_1
 10
-62.05230562867374
 20
47.2627240977674
 30
0.0
  0
VERTEX
  5
CD1
  8
LAYER_1
 10
-61.9835122530455
 20
47.30731227034904
 30
0.0
  0
VERTEX
  5
CD2
  8
LAYER_1
 10
-61.91462409475992
 20
47.37137550164838
 30
0.0
  0
VERTEX
  5
CD3
  8
LAYER_1
 10
-61.85363920100981
 20
47.44635127247304
 30
0.0
  0
VERTEX
  5
CD4
  8
LAYER_1
 10
-61.80855561898798
 20
47.52367706363064
 30
0.0
  0
VERTEX
  5
CD5
  8
LAYER_1
 10
-61.76946195861474
 20
47.6234518495538
 30
0.0
  0
VERTEX
  5
CD6
  8
LAYER_1
 10
-61.74366199846443
 20
47.72282399163552
 30
0.0
  0
VERTEX
  5
CD7
  8
LAYER_1
 10
-61.73123613039805
 20
47.82285718093156
 30
0.0
  0
VERTEX
  5
CD8
  8
LAYER_1
 10
-61.73226474627657
 20
47.92461510849768
 30
0.0
  0
VERTEX
  5
CD9
  8
LAYER_1
 10
-61.74682823796097
 20
48.02916146538961
 30
0.0
  0
VERTEX
  5
CDA
  8
LAYER_1
 10
-61.7750069973122
 20
48.1375599426631
 30
0.0
  0
VERTEX
  5
CDB
  8
LAYER_1
 10
-61.81688141619126
 20
48.2508742313739
 30
0.0
  0
VERTEX
  5
CDC
  8
LAYER_1
 10
-61.87253188645914
 20
48.37016802257776
 30
0.0
  0
VERTEX
  5
CDD
  8
LAYER_1
 10
-61.94412267814162
 20
48.50344515637626
 30
0.0
  0
VERTEX
  5
CDE
  8
LAYER_1
 10
-62.01268091258684
 20
48.61462847611116
 30
0.0
  0
VERTEX
  5
CDF
  8
LAYER_1
 10
-62.0811482489535
 20
48.70641707624056
 30
0.0
  0
VERTEX
  5
CE0
  8
LAYER_1
 10
-62.15246634640026
 20
48.78151005122252
 30
0.0
  0
VERTEX
  5
CE1
  8
LAYER_1
 10
-62.2295768640858
 20
48.84260649551513
 30
0.0
  0
VERTEX
  5
CE2
  8
LAYER_1
 10
-62.31542146116882
 20
48.89240550357648
 30
0.0
  0
VERTEX
  5
CE3
  8
LAYER_1
 10
-62.41294179680798
 20
48.93360616986464
 30
0.0
  0
VERTEX
  5
CE4
  8
LAYER_1
 10
-62.52507953016197
 20
48.96890758883771
 30
0.0
  0
VERTEX
  5
CE5
  8
LAYER_1
 10
-62.65387931918065
 20
48.99468758217789
 30
0.0
  0
VERTEX
  5
CE6
  8
LAYER_1
 10
-62.77323603205375
 20
48.99943658119938
 30
0.0
  0
VERTEX
  5
CE7
  8
LAYER_1
 10
-62.88247783161025
 20
48.98468365780076
 30
0.0
  0
VERTEX
  5
CE8
  8
LAYER_1
 10
-62.98093288067915
 20
48.95195788388057
 30
0.0
  0
VERTEX
  5
CE9
  8
LAYER_1
 10
-63.06792934208948
 20
48.90278833133743
 30
0.0
  0
VERTEX
  5
CEA
  8
LAYER_1
 10
-63.14279537867022
 20
48.8387040720699
 30
0.0
  0
VERTEX
  5
CEB
  8
LAYER_1
 10
-63.20485915325039
 20
48.76123417797655
 30
0.0
  0
VERTEX
  5
CEC
  8
LAYER_1
 10
-63.25344882865897
 20
48.67190772095597
 30
0.0
  0
VERTEX
  5
CED
  8
LAYER_1
 10
-63.28789256772498
 20
48.57225377290673
 30
0.0
  0
VERTEX
  5
CEE
  8
LAYER_1
 10
-63.30751853327743
 20
48.46380140572741
 30
0.0
  0
VERTEX
  5
CEF
  8
LAYER_1
 10
-63.31165488814531
 20
48.34807969131658
 30
0.0
  0
VERTEX
  5
CF0
  8
LAYER_1
 10
-63.29962979515762
 20
48.22661770157282
 30
0.0
  0
VERTEX
  5
CF1
  8
LAYER_1
 10
-63.27077141714337
 20
48.10094450839471
 30
0.0
  0
VERTEX
  5
CF2
  8
LAYER_1
 10
-63.22440791693157
 20
47.97258918368082
 30
0.0
  0
VERTEX
  5
CF3
  8
LAYER_1
 10
-63.15986745735121
 20
47.84308079932974
 30
0.0
  0
VERTEX
  5
CF4
  8
LAYER_1
 10
-63.07647820123129
 20
47.71394842724003
 30
0.0
  0
VERTEX
  5
CF5
  8
LAYER_1
 10
-62.98935330053285
 20
47.60454914577147
 30
0.0
  0
VERTEX
  5
CF6
  8
LAYER_1
 10
-62.89302497858982
 20
47.50265888079898
 30
0.0
  0
VERTEX
  5
CF7
  8
LAYER_1
 10
-62.79085378521406
 20
47.41061824372807
 30
0.0
  0
VERTEX
  5
CF8
  8
LAYER_1
 10
-62.68620027021745
 20
47.33076784596427
 30
0.0
  0
VERTEX
  5
CF9
  8
LAYER_1
 10
-62.58242498341187
 20
47.2654482989131
 30
0.0
  0
VERTEX
  5
CFA
  8
LAYER_1
 10
-62.48288847460918
 20
47.21700021398007
 30
0.0
  0
VERTEX
  5
CFB
  8
LAYER_1
 10
-62.39095129362127
 20
47.18776420257072
 30
0.0
  0
VERTEX
  5
CFC
  8
LAYER_1
 10
-62.30997399026
 20
47.18008087609056
 30
0.0
  0
VERTEX
  5
CFD
  8
LAYER_1
 10
-62.19407567845833
 20
47.20645118124119
 30
0.0
  0
SEQEND
  5
D8F
  8
LAYER_1
  0
POLYLINE
  5
7F
  8
LAYER_1
 66
     1
 10
0.0
 20
0.0
 30
0.0
 70
     1
  0
VERTEX
  5
CFE
  8
LAYER_1
 10
-28.16249813884497
 20
51.54147281718184
 30
0.0
  0
VERTEX
  5
CFF
  8
LAYER_1
 10
-25.23749802261591
 20
51.88636219453063
 30
0.0
  0
VERTEX
  5
D00
  8
LAYER_1
 10
-24.26249798387289
 20
52.05486112717507
 30
0.0
  0
VERTEX
  5
D01
  8
LAYER_1
 10
-19.76249780505896
 20
52.80409424296919
 30
0.0
  0
VERTEX
  5
D02
  8
LAYER_1
 10
-19.53749779611826
 20
52.87235113832769
 30
0.0
  0
VERTEX
  5
D03
  8
LAYER_1
 10
-19.19132590736263
 20
52.95701248365066
 30
0.0
  0
VERTEX
  5
D04
  8
LAYER_1
 10
-18.67499776184559
 20
53.06470986509393
 30
0.0
  0
VERTEX
  5
D05
  8
LAYER_1
 10
-18.15212644312927
 20
53.17114720552482
 30
0.0
  0
VERTEX
  5
D06
  8
LAYER_1
 10
-17.62851626264522
 20
53.28684124170097
 30
0.0
  0
VERTEX
  5
D07
  8
LAYER_1
 10
-17.10821303793637
 20
53.41072299203444
 30
0.0
  0
VERTEX
  5
D08
  8
LAYER_1
 10
-16.59526258654564
 20
53.54172347493729
 30
0.0
  0
VERTEX
  5
D09
  8
LAYER_1
 10
-16.09371072601597
 20
53.67877370882158
 30
0.0
  0
VERTEX
  5
D0A
  8
LAYER_1
 10
-15.60760327389028
 20
53.82080471209934
 30
0.0
  0
VERTEX
  5
D0B
  8
LAYER_1
 10
-15.14098604771151
 20
53.96674750318264
 30
0.0
  0
VERTEX
  5
D0C
  8
LAYER_1
 10
-14.69790486502259
 20
54.11553310048353
 30
0.0
  0
VERTEX
  5
D0D
  8
LAYER_1
 10
-13.49445527237976
 20
54.53495774723345
 30
0.0
  0
VERTEX
  5
D0E
  8
LAYER_1
 10
-12.26249750703573
 20
55.10435386615652
 30
0.0
  0
VERTEX
  5
D0F
  8
LAYER_1
 10
-12.93749753385782
 20
55.42212724727167
 30
0.0
  0
VERTEX
  5
D10
  8
LAYER_1
 10
-13.72265381505713
 20
55.76747501973485
 30
0.0
  0
VERTEX
  5
D11
  8
LAYER_1
 10
-14.66249760240316
 20
56.15154427792072
 30
0.0
  0
VERTEX
  5
D12
  8
LAYER_1
 10
-15.32628534876504
 20
56.40432353447331
 30
0.0
  0
VERTEX
  5
D13
  8
LAYER_1
 10
-16.02089226500549
 20
56.64946842089162
 30
0.0
  0
VERTEX
  5
D14
  8
LAYER_1
 10
-16.8846807389931
 20
56.93400696675285
 30
0.0
  0
VERTEX
  5
D15
  8
LAYER_1
 10
-18.05601315859644
 20
57.30496720163418
 30
0.0
  0
VERTEX
  5
D16
  8
LAYER_1
 10
-18.52452859856066
 20
57.45183585591943
 30
0.0
  0
VERTEX
  5
D17
  8
LAYER_1
 10
-19.70733037797889
 20
57.74337050006531
 30
0.0
  0
VERTEX
  5
D18
  8
LAYER_1
 10
-20.81682968651441
 20
58.00571079803183
 30
0.0
  0
VERTEX
  5
D19
  8
LAYER_1
 10
-21.91481394169041
 20
58.24208780356224
 30
0.0
  0
VERTEX
  5
D1A
  8
LAYER_1
 10
-23.01646125701753
 20
58.45493565502637
 30
0.0
  0
VERTEX
  5
D1B
  8
LAYER_1
 10
-24.13694974600638
 20
58.64668849079408
 30
0.0
  0
VERTEX
  5
D1C
  8
LAYER_1
 10
-25.2914575221676
 20
58.8197804492352
 30
0.0
  0
VERTEX
  5
D1D
  8
LAYER_1
 10
-26.49516269901181
 20
58.97664566871961
 30
0.0
  0
VERTEX
  5
D1E
  8
LAYER_1
 10
-27.76324339004963
 20
59.11971828761713
 30
0.0
  0
VERTEX
  5
D1F
  8
LAYER_1
 10
-29.1108777087917
 20
59.25143244429762
 30
0.0
  0
VERTEX
  5
D20
  8
LAYER_1
 10
-29.83425726979773
 20
59.31732829214414
 30
0.0
  0
VERTEX
  5
D21
  8
LAYER_1
 10
-31.77337781458994
 20
59.40633860962203
 30
0.0
  0
VERTEX
  5
D22
  8
LAYER_1
 10
-32.72834263874916
 20
59.43968777439407
 30
0.0
  0
VERTEX
  5
D23
  8
LAYER_1
 10
-33.78017872032738
 20
59.45815121931928
 30
0.0
  0
VERTEX
  5
D24
  8
LAYER_1
 10
-34.86034807933603
 20
59.46104245157297
 30
0.0
  0
VERTEX
  5
D25
  8
LAYER_1
 10
-35.90031273578656
 20
59.44767497833047
 30
0.0
  0
VERTEX
  5
D26
  8
LAYER_1
 10
-38.08812711219097
 20
59.40000102956103
 30
0.0
  0
VERTEX
  5
D27
  8
LAYER_1
 10
-40.38749862462282
 20
59.24494029270059
 30
0.0
  0
VERTEX
  5
D28
  8
LAYER_1
 10
-42.07499869167805
 20
59.05746961645025
 30
0.0
  0
VERTEX
  5
D29
  8
LAYER_1
 10
-43.78840784401499
 20
58.8542219062775
 30
0.0
  0
VERTEX
  5
D2A
  8
LAYER_1
 10
-44.55833685445673
 20
58.75181940680672
 30
0.0
  0
VERTEX
  5
D2B
  8
LAYER_1
 10
-45.28699124372093
 20
58.64639426597593
 30
0.0
  0
VERTEX
  5
D2C
  8
LAYER_1
 10
-45.9868028287878
 20
58.53606882495731
 30
0.0
  0
VERTEX
  5
D2D
  8
LAYER_1
 10
-46.67020342663754
 20
58.41896542492306
 30
0.0
  0
VERTEX
  5
D2E
  8
LAYER_1
 10
-47.34962485425038
 20
58.29320640704536
 30
0.0
  0
VERTEX
  5
D2F
  8
LAYER_1
 10
-48.03749892860651
 20
58.15691411249642
 30
0.0
  0
VERTEX
  5
D30
  8
LAYER_1
 10
-49.68749899417162
 20
57.81995631109871
 30
0.0
  0
VERTEX
  5
D31
  8
LAYER_1
 10
-50.54999902844429
 20
57.60735041220281
 30
0.0
  0
VERTEX
  5
D32
  8
LAYER_1
 10
-51.64179236636591
 20
57.32167935605602
 30
0.0
  0
VERTEX
  5
D33
  8
LAYER_1
 10
-52.78470871773337
 20
56.99423460906641
 30
0.0
  0
VERTEX
  5
D34
  8
LAYER_1
 10
-53.86489796427362
 20
56.65895570437928
 30
0.0
  0
VERTEX
  5
D35
  8
LAYER_1
 10
-54.34589176127322
 20
56.49898454700705
 30
0.0
  0
VERTEX
  5
D36
  8
LAYER_1
 10
-54.76850998771363
 20
56.34978217513995
 30
0.0
  0
VERTEX
  5
D37
  8
LAYER_1
 10
-55.72452081734285
 20
55.9995267887341
 30
0.0
  0
VERTEX
  5
D38
  8
LAYER_1
 10
-55.68120053924619
 20
55.95620651063876
 30
0.0
  0
VERTEX
  5
D39
  8
LAYER_1
 10
-55.12184986356645
 20
55.87010476646336
 30
0.0
  0
VERTEX
  5
D3A
  8
LAYER_1
 10
-54.70858837639822
 20
55.79403517036738
 30
0.0
  0
VERTEX
  5
D3B
  8
LAYER_1
 10
-54.52194767105163
 20
55.7494641278152
 30
0.0
  0
VERTEX
  5
D3C
  8
LAYER_1
 10
-54.34809796663444
 20
55.70021166486767
 30
0.0
  0
VERTEX
  5
D3D
  8
LAYER_1
 10
-54.18663749472493
 20
55.64603483848038
 30
0.0
  0
VERTEX
  5
D3E
  8
LAYER_1
 10
-54.03716448690139
 20
55.5866907056089
 30
0.0
  0
VERTEX
  5
D3F
  8
LAYER_1
 10
-53.89927717474211
 20
55.52193632320885
 30
0.0
  0
VERTEX
  5
D40
  8
LAYER_1
 10
-53.77257378982536
 20
55.45152874823579
 30
0.0
  0
VERTEX
  5
D41
  8
LAYER_1
 10
-53.65665256372943
 20
55.37522503764532
 30
0.0
  0
VERTEX
  5
D42
  8
LAYER_1
 10
-53.55111172803261
 20
55.29278224839303
 30
0.0
  0
VERTEX
  5
D43
  8
LAYER_1
 10
-53.45554951431318
 20
55.20395743743451
 30
0.0
  0
VERTEX
  5
D44
  8
LAYER_1
 10
-53.36956415414942
 20
55.10850766172533
 30
0.0
  0
VERTEX
  5
D45
  8
LAYER_1
 10
-53.29275387911962
 20
55.0061899782211
 30
0.0
  0
VERTEX
  5
D46
  8
LAYER_1
 10
-53.22471692080207
 20
54.89676144387739
 30
0.0
  0
VERTEX
  5
D47
  8
LAYER_1
 10
-53.16505151077503
 20
54.7799791156498
 30
0.0
  0
VERTEX
  5
D48
  8
LAYER_1
 10
-53.11335588061682
 20
54.65560005049392
 30
0.0
  0
VERTEX
  5
D49
  8
LAYER_1
 10
-53.06195650488591
 20
54.51379570877376
 30
0.0
  0
VERTEX
  5
D4A
  8
LAYER_1
 10
-53.01692275420588
 20
54.40849064143967
 30
0.0
  0
VERTEX
  5
D4B
  8
LAYER_1
 10
-52.99093505453069
 20
54.36669754852387
 30
0.0
  0
VERTEX
  5
D4C
  8
LAYER_1
 10
-52.95950924064313
 20
54.33063592963238
 30
0.0
  0
VERTEX
  5
D4D
  8
LAYER_1
 10
-52.92030213905147
 20
54.29917466990776
 30
0.0
  0
VERTEX
  5
D4E
  8
LAYER_1
 10
-52.87097057626404
 20
54.27118265449262
 30
0.0
  0
VERTEX
  5
D4F
  8
LAYER_1
 10
-52.73256137313503
 20
54.22108189716113
 30
0.0
  0
VERTEX
  5
D50
  8
LAYER_1
 10
-52.52553624332247
 20
54.17128473877865
 30
0.0
  0
VERTEX
  5
D51
  8
LAYER_1
 10
-51.83065665191237
 20
54.03640554342363
 30
0.0
  0
VERTEX
  5
D52
  8
LAYER_1
 10
-51.52569796693614
 20
53.96878596353621
 30
0.0
  0
VERTEX
  5
D53
  8
LAYER_1
 10
-51.16244349904894
 20
53.87432136164351
 30
0.0
  0
VERTEX
  5
D54
  8
LAYER_1
 10
-50.78642059380989
 20
53.76552902708697
 30
0.0
  0
VERTEX
  5
D55
  8
LAYER_1
 10
-50.44315659677807
 20
53.65492624920805
 30
0.0
  0
VERTEX
  5
D56
  8
LAYER_1
 10
-49.68749899417162
 20
53.39471880736653
 30
0.0
  0
VERTEX
  5
D57
  8
LAYER_1
 10
-46.76249887794256
 20
52.59214626794251
 30
0.0
  0
VERTEX
  5
D58
  8
LAYER_1
 10
-45.56249883025885
 20
52.36166476563139
 30
0.0
  0
VERTEX
  5
D59
  8
LAYER_1
 10
-39.08460709018622
 20
52.27668017244461
 30
0.0
  0
VERTEX
  5
D5A
  8
LAYER_1
 10
-34.83749840408564
 20
52.05327220022262
 30
0.0
  0
VERTEX
  5
D5B
  8
LAYER_1
 10
-32.96249832957983
 20
51.89656045779633
 30
0.0
  0
VERTEX
  5
D5C
  8
LAYER_1
 10
-28.36705611035301
 20
51.52500502765179
 30
0.0
  0
SEQEND
  5
D90
  8
LAYER_1
  0
POLYLINE
  5
80
  8
LAYER_1
 66
     1
 10
0.0
 20
0.0
 30
0.0
 70
     1
  0
VERTEX
  5
D5D
  8
LAYER_1
 10
-57.58889482960453
 20
52.63125507161021
 30
0.0
  0
VERTEX
  5
D5E
  8
LAYER_1
 10
-57.562499307096
 20
52.87500508129597
 30
0.0
  0
VERTEX
  5
D5F
  8
LAYER_1
 10
-57.53610378458747
 20
53.15200411958568
 30
0.0
  0
VERTEX
  5
D60
  8
LAYER_1
 10
-57.5283776682429
 20
53.19297361266234
 30
0.0
  0
VERTEX
  5
D61
  8
LAYER_1
 10
-57.51074291491376
 20
53.23529712363653
 30
0.0
  0
VERTEX
  5
D62
  8
LAYER_1
 10
-57.44641865977874
 20
53.32328277293879
 30
0.0
  0
VERTEX
  5
D63
  8
LAYER_1
 10
-57.34447334413619
 20
53.41451421481519
 30
0.0
  0
VERTEX
  5
D64
  8
LAYER_1
 10
-57.2062492929399
 20
53.50754459658845
 30
0.0
  0
VERTEX
  5
D65
  8
LAYER_1
 10
-56.99214772193227
 20
53.64327298221603
 30
0.0
  0
VERTEX
  5
D66
  8
LAYER_1
 10
-56.93559010249737
 20
53.68518880854194
 30
0.0
  0
VERTEX
  5
D67
  8
LAYER_1
 10
-56.92499928176403
 20
53.70132771255248
 30
0.0
  0
VERTEX
  5
D68
  8
LAYER_1
 10
-56.96249928325415
 20
53.70406938533316
 30
0.0
  0
VERTEX
  5
D69
  8
LAYER_1
 10
-57.63749931007624
 20
53.77682375791997
 30
0.0
  0
VERTEX
  5
D6A
  8
LAYER_1
 10
-59.09999936819077
 20
53.95374307410412
 30
0.0
  0
VERTEX
  5
D6B
  8
LAYER_1
 10
-59.54910348570978
 20
54.00916325409464
 30
0.0
  0
VERTEX
  5
D6C
  8
LAYER_1
 10
-59.70025578743179
 20
54.02115961930046
 30
0.0
  0
VERTEX
  5
D6D
  8
LAYER_1
 10
-59.8173659072952
 20
54.02196822777594
 30
0.0
  0
VERTEX
  5
D6E
  8
LAYER_1
 10
-59.91160208742482
 20
54.01105512436808
 30
0.0
  0
VERTEX
  5
D6F
  8
LAYER_1
 10
-59.99413256994548
 20
53.98788635392383
 30
0.0
  0
VERTEX
  5
D70
  8
LAYER_1
 10
-60.16874941065907
 20
53.9026459913141
 30
0.0
  0
VERTEX
  5
D71
  8
LAYER_1
 10
-60.27795351656096
 20
53.83765270541856
 30
0.0
  0
VERTEX
  5
D72
  8
LAYER_1
 10
-60.36738223105203
 20
53.7754655511995
 30
0.0
  0
VERTEX
  5
D73
  8
LAYER_1
 10
-60.4278070381406
 20
53.72313682620387
 30
0.0
  0
VERTEX
  5
D74
  8
LAYER_1
 10
-60.44999942183495
 20
53.68771882797861
 30
0.0
  0
VERTEX
  5
D75
  8
LAYER_1
 10
-60.42771586718034
 20
53.65318375271288
 30
0.0
  0
VERTEX
  5
D76
  8
LAYER_1
 10
-60.36704282232869
 20
53.60325902587439
 30
0.0
  0
VERTEX
  5
D77
  8
LAYER_1
 10
-60.27724671594825
 20
53.54462978892789
 30
0.0
  0
VERTEX
  5
D78
  8
LAYER_1
 10
-60.16759397670729
 20
53.48398118333816
 30
0.0
  0
VERTEX
  5
D79
  8
LAYER_1
 10
-59.88518853157963
 20
53.33990867564583
 30
0.0
  0
VERTEX
  5
D7A
  8
LAYER_1
 10
-57.80664607649368
 20
52.50000506639481
 30
0.0
  0
VERTEX
  5
D7B
  8
LAYER_1
 10
-57.7033226925399
 20
52.50000506639481
 30
0.0
  0
VERTEX
  5
D7C
  8
LAYER_1
 10
-57.66232794706946
 20
52.51036151211883
 30
0.0
  0
VERTEX
  5
D7D
  8
LAYER_1
 10
-57.6270886119217
 20
52.53855975542683
 30
0.0
  0
VERTEX
  5
D7E
  8
LAYER_1
 10
-57.6013593513492
 20
52.58029315552267
 30
0.0
  0
SEQEND
  5
D91
  8
LAYER_1
  0
ENDSEC
  0
EOF
